Oops, an error
Loading. Please wait.

Me Voy Tab

by Tranzas
19 views 1 this week
no commentswrite comment
1 2 3 4 5
3 more votes to show rating
add to favorites
launch autoscroll
font size
0
reset
how to read this tab
guitar tuner
×
Best way to learn
"Me Voy"
Autoscroll
slow
fast
+/-
esc
set tempo
stop
   De nueva cuenta acá les traigo otra canción en el tono
original la cual lleva arpejio y con un par de arreglos suena
muy bonito.

   No esta del todo correcta pero suena bien de acuerdo a mi oído,
igual si alguien tiene una manera de corregirla será bien recibida
en la pagina y cualquier duda no olviden escribir a mi correo
MmardeCcopas@

   Ya hay una tablatura muy correcta en otra versión de esta
misma canción así que por lo tanto no la pondré aquí, solamente el
arpejio. El tono original es Do sostenido.

   Amor esta y todas las canciones son por ti ...


( Intro )


**** C# ****** F# ************ C# ***** F# **************

6E ------------2-------------------------2----------------------
5A --4-------------------------4--------------------------------
4D ----6--6-------------4--------6--6---------------------------
3G ------6-----3-/-4-/3------------6-----3-/-4-/-3--------------
2B -------------------------------------------------------------
6e -------------------------------------------------------------


***** a#m ******************** D# ******* G# *************

6E ---6------------------------------------4--------------------
5A ----8---------------------6-----6-------------6--------------
4D -----8---------------6------8---8--------------6-------6-----
3G ---------5-/-6-/-5--------------8---------------5---5--------
2B --------------------------------8------------------4---------
6e ----------------------------------------4------------------4-


**** C# ****** F# ************ C# ***** F# ***********

6E ------------2-------------------------2----------------------
5A --4-------------------------4--------------------------------
4D ----6--6-------------4--------6--6---------------------------
3G ------6-----3-/-4-/3------------6-----3-/-4-/-3--------------
2B -------------------------------------------------------------
6e -------------------------------------------------------------
_Me_voy_tal_vez_parezca_extraño_________yo_soy_el_que_te_ha


***** a#m ******************* D# *****

6E ---6---------------------------------------------------------
5A ----8--------------------6-----6------------6-------6------6-
4D -----8---------------6-----8---8--------------6-------6------
3G ---------5-/-6-/-5-------------8------------5-------6------8-
2B -------------------------------8-----------------------------
6e -------------------------------------------------------------
_____amado_________________el que siempre rogó


**** C# ****** F# ***************** C# ***** F# ***

6E ------------2-------------------------------2-----------------
5A --4------------------------------4----------------------------
4D ----6--6-------------4-------------6--6-----------------------
3G ------6-----3-/-4-/3-----------------6------3-/-4-/-3---------
2B --------------------------------------------------------------
6e --------------------------------------------------------------
_Me_voy______se_que_esto_te_sorprende__________lloraba por


***** A#m ******************* D# **********

6E ---6---------------------------------------------------------
5A ----8--------------------6-----6-----------6-------6------6--
4D -----8---------------6-----8---8-------------6-------6-------
3G ---------5-/-6-/-5-------------8-----------5-------6------8--
2B -------------------------------8-----------------------------
6e -------------------------------------------------------------
__perderte_________________ya vez ahora me voy


************ C# ************* Fm **************** Bbm ***

6E ---------------------------1-----------------------------------
5A ----------4---4----------------3---------------1--1------------
4D ---------------6---6------------3---3---------------3----3-----
3G ----------------6-6--------------1-1-----------------3--3------
2B -----------------4----------------1------------2-------2-------
1e ----------4----------------1-----------------------------------

A_recordar_amores______a_encontrarte_en_todas_partes


***** F# **************** C# ********* D# *********** G# ***

6E ---2--2--------------------------------------------4---4---------
5A -----------------------4--4---------6--6-------------------------
4D -------4---4---------------6---6---------8----8---------6---6----
3G --------3-3-----------------6-6-----------8--8-----------5-5-----
2B ---------2-------------------4--------------6-------------4------
1e ---1-------------------4------------6--------------4-----------4-

a_fingir_que_nunca_es_tarde________a_sonreir_en_cada_adios


**************** C# ************* Fm **************** Bbm **

6E -------------------------------1---------------------------------
5A --------------4---4----------------3---------------1--1----------
4D -------------------6---6------------3---3---------------3----3---
3G --------------------6-6--------------1-1-----------------3--3----
2B ---------------------4----------------1------------2-------2-----
1e --------------4----------------1---------------------------------

A_recortar_las_flores______que_dejaste_entre_mis_brazos


***** F# **************** C# ********* D# *********** G# **

6E ---2--2--------------------------------------------4---4---------
5A -----------------------4--4---------6--6-------------------------
4D -------4---4---------------6---6---------8----8---------6---6----
3G --------3-3-----------------6-6-----------8--8-----------5-5-----
2B ---------2-------------------4--------------6-------------4------
1e ---1-------------------4------------6--------------4-----------4-

a_fingir_que_no_hay_fracasos________a_sonreir_y_a_no_ser_yo


**** C# ****** F# ************ C# ***** F# *****

6E ------------2-------------------------2----------------------
5A --4-------------------------4--------------------------------
4D ----6--6-------------4--------6--6---------------------------
3G ------6-----3-/-4-/3------------6-----3-/-4-/-3--------------
2B -------------------------------------------------------------
6e -------------------------------------------------------------
_Me_voy_ya_no_tendras_que_verme_________de_tanto_retenerte


***** a#m ******************** D# ********** G# **

6E ---6--------------------------------------4--4----------------
5A ----8--------------------6-----6------------------------------
4D -----8---------------6-----8---8---------------6---6----------
3G ---------5-/-6-/-5-------------8----------------5-5-----------
2B -------------------------------8-----------------4------------
6e ------------------------------------------4----------4--------
____________________________el_alma_se_rompio


**** C# ****** F# ************ C# ***** F# ****

6E ------------2-------------------------2----------------------
5A --4-------------------------4--------------------------------
4D ----6--6-------------4--------6--6---------------------------
3G ------6-----3-/-4-/3------------6-----3-/-4-/-3--------------
2B -------------------------------------------------------------
6e -------------------------------------------------------------
_Me_voy_esta_vez_para_siempre_______________lloraba_por


***** a#m ******************* D# *****

6E ---6---------------------------------------------------------
5A ----8--------------------6-----6------------6-------6------6-
4D -----8---------------6-----8---8--------------6-------6------
3G ---------5-/-6-/-5-------------8------------5-------6------8-
2B -------------------------------8-----------------------------
6e -------------------------------------------------------------
__perderte_________________ya_vez_ahora_me_voy


************ C# ************* Fm *************** Bbm ***

6E ---------------------------1-----------------------------------
5A ----------4---4----------------3---------------1--1------------
4D ---------------6---6------------3---3---------------3----3-----
3G ----------------6-6--------------1-1-----------------3--3------
2B -----------------4----------------1------------2-------2-------
1e ----------4----------------1-----------------------------------

A_recordar_amores______a_encontrarte_en_todas_partes


***** F# **************** C# ********* D# *********** G# ***

6E ---2--2--------------------------------------------4---4---------
5A -----------------------4--4---------6--6-------------------------
4D -------4---4---------------6---6---------8----8---------6---6----
3G --------3-3-----------------6-6-----------8--8-----------5-5-----
2B ---------2-------------------4--------------6-------------4------
1e ---1-------------------4------------6--------------4-----------4-

a_fingir_que_nunca_es_tarde________a_sonreir_en_cada_adios


**************** C# ************* Fm **************** Bbm ***

6E -------------------------------1---------------------------------
5A --------------4---4----------------3---------------1--1----------
4D -------------------6---6------------3---3---------------3----3---
3G --------------------6-6--------------1-1-----------------3--3----
2B ---------------------4----------------1------------2-------2-----
1e --------------4----------------1---------------------------------

A_recortar_las_flores______que_dejaste_entre_mis_brazos


***** F# **************** C# ********* D# *********** G# ***

6E ---2--2--------------------------------------------4---4---------
5A -----------------------4--4---------6--6-------------------------
4D -------4---4---------------6---6---------8----8---------6---6----
3G --------3-3-----------------6-6-----------8--8-----------5-5-----
2B ---------2-------------------4--------------6-------------4------
1e ---1-------------------4------------6--------------4-------------

a_fingir_que_no_hay_fracasos___________a_sonreir_y_a_no_ser_yo


********** G# ***********

6E --------4--------------
5A -----------------------
4D -----------6----6------
3G -------------5-5-------
2B --------------4--------
1e --------4--------4-----

a_no_ser_yo


Se repite el coro de nueva cuenta pero sin las letra, después ...


***** F# ********** F# ********** A#m ********** A#m ****

6E ---2--2----------2--2-----------6--6-----------6--6-------------
5A ----------------------------------------------------------------
4D -------4---4----------4---4----------8---8----------8---8-------
3G --------3-3------------3-3------------6-6------------6-6--------
2B ---------2--------------2--------------6--------------6---------
1e ---1-------------1--------------6--------------6----------------

_____ahora_puedes_ser____________lo_que_tanto_quieres


***** D# ********* D# ********* G# ******* G# ****

6E -----------------------------4----------4-----------------------
5A ---6--6---------6--6--------------------------------------------
4D -------8---8--------8---8-------6---6------6---6----------------
3G --------8-8----------8-8---------5-5--------5-5-----------------
2B ---------6------------6-----------4----------4------------------
1e ---6------------6------------4----------4----------4------------

____mientras_yo_tal_vez_volvere


Se repite el coro y termina ......


Espero les sirva un poco, les haya gustado y les permita mejorar ...


Siempre tuyo ....
Suggest correction
Give kudos to tab author, rate the tab!
1 2 3 4 5
comments
print report bad tab
guest
You may want to rate the tab now too:
select rating
Wanna post a correction for this tab? Suggest correction