Oops, an error
Loading. Please wait.

Nuestras Canciones Tab

by Tranzas
16 views 3 this week
no commentswrite comment
1 2 3 4 5
3 more votes to show rating
add to favorites
launch autoscroll
font size
0
reset
how to read this tab
guitar tuner
×
Best way to learn
"Nuestras Canciones"
Autoscroll
slow
fast
+/-
esc
set tempo
stop
Hola, es mi primera transaccion asi que si estoy equibocado
aganmelo saber porfavor
Bueno, pues este es el solo de esta rola que la 
verdad esta bien chida estuve esperando a que sacaran 
este solo pero no la sacaron y decidi hacerlo yo y esto fue lo que me salio n_n
y me gstaria dedicarsela a laura que es una chavita muy especial para mi...
espero que les guste

1|-------------------------------------------|
2|-------------------------------------------|
3|-----5-6-8-6----5/8-9-11-10-11-10-11-10----|
4|-4-6------------------------------------11-|
5|-------------------------------------------|
6|-------------------------------------------|

|-------------------------------------------------|
|-------------------------------------------------|
|------8-9-11-8-9-7h8h7---------------------------|
|-9/11------------------10-9-10-10/12-------------|
|-------------------------------------11-11-10-11-|
|-------------------------------------------------|

cualquier sugerencia escriban a mi correo
Y ARRIBA LOS TIGRES!!!
spider_man_25@
Carlos Landa
Suggest correction
Give kudos to tab author, rate the tab!
1 2 3 4 5
comments
print report bad tab
guest
You may want to rate the tab now too:
select rating
Wanna post a correction for this tab? Suggest correction