Oops, an error
Loading. Please wait.

Magnetic Live tab

by Traphik
95 views 1 this week
no commentswrite comment
1 2 3 4 5
2 more votes to show rating
add to favorites
×
Save as Personal and add changes to this tab that will be seen only by you. Learn more ›
×
You can save this tab as Personal to edit and correct it or add notes. All changes will be seen only by you. Learn more »
launch autoscroll
font size
0
reset
how to read this tab
guitar tuner
edit
Autoscroll
slow
fast
+/-
esc
set tempo
stop
Author
Difficulty
Traphik Ft. Tori Kelly - Magnetic Live Acoustic + Dumbfoundead Freestyle
  This version is: https://youtu.be/JtDQcPO6X6o on youtube so check it 
out if you want to use the same strum pattern that Tori used. 

E|--5--7----------------|
B|--5--7--9--9\2--2-----|
G|--6--8--9--9\2--2--1--|
D|--7--9--9--9\2--2--2--|
A|--7--9-------------2--|
E|--5--7--9--9\2--2-----|

  These are the chords in the order that they are played in
throughout the whole song.(you can play this as an intro too)

[Intro: Traphik]

Yes!
Tori Kelly
Traphik!


[Verse 1: Traphik]

E|-------------5-----------------------7------|
B|-------------5-----------------------7-----9|
G|-------------6-----------------------8-----9|
D|-------------7-----------------------9-----9|
A|-------------7-----------------------9------|
E|-------------5-----------------------7-----9|
It feels like springtime sunshine on my window!
E|----------------------------------------------|
B|-------------------------------------------9\2|
G|-------------------------------------------9\2|
D|-------------------------------------------9\2|
A|----------------------------------------------|
E|-------------------------------------------9\2|
My heart skipping and beating a different tempo!
E|---------------------------------|
B|---------------------------2-----|
G|---------------------------2--1--|
D|---------------------------2--2--|
A|------------------------------2--|
E|---------------------------2-----|
She so dope I don't need no indo
We so drawn together with no pencils
E|----5-------------------------------------------7------|
B|----5-------------------------------------------7-----9|
G|----6-------------------------------------------8-----9|
D|----7-------------------------------------------9-----9|
A|----7-------------------------------------------9------|
E|----5-------------------------------------------7-----9|
     What is this feeling I'm feeling, I don't get it
E|----------------------------------------------|
B|-------------------------------------------9\2|
G|-------------------------------------------9\2|
D|-------------------------------------------9\2|
A|----------------------------------------------|
E|-------------------------------------------9\2|
I'm kinda nervous, but baby I'm so ready
They try to bring us down, but no we won't let it
E|--------------------------|
B|--------------------2-----|
G|--------------------2--1--|
D|--------------------2--2--|
A|-----------------------2--|
E|--------------------2-----|
And the hater's talking shit then say fuck 'em and forget it
E|-------------5-----------------------7------|
B|-------------5-----------------------7-----9|
G|-------------6-----------------------8-----9|
D|-------------7-----------------------9-----9|
A|-------------7-----------------------9------|
E|-------------5-----------------------7-----9|
It's you and me, just groovin' to the beat
E|----------------------------------------------|
B|-------------------------------------------9\2|
G|-------------------------------------------9\2|
D|-------------------------------------------9\2|
A|----------------------------------------------|
E|-------------------------------------------9\2|
So fluidly even my crew can see
That I never felt it's so new to me
E|-----------|
B|-----2-----|
G|-----2--1--|
D|-----2--2--|
A|--------2--|
E|-----2-----|
So I'm clinging to your waist like Louie V
E|-5-----------------------7------|
B|-5-----------------------7-----9|
G|-6-----------------------8-----9|
D|-7-----------------------9-----9|
A|-7-----------------------9------|
E|-5-----------------------7-----9|
    It's like a scene that's so cliche,
E|----------------------------------------------|
B|-------------------------------------------9\2|
G|-------------------------------------------9\2|
D|-------------------------------------------9\2|
A|----------------------------------------------|
E|-------------------------------------------9\2|
So meant to be it's the only way
So say goodbye to the lonely days
E|-----------|
B|-----2-----|
G|-----2--1--|
D|-----2--2--|
A|--------2--|
E|-----2-----|
Now we on cloud 9 let's float away


[Hook: Tori Kelly]

E|-5------------7-------------------|
B|-5------------7-----9----------9\2|
G|-6------------8-----9----------9\2|
D|-7------------9-----9----------9\2|
A|-7------------9-------------------|
E|-5------------7-----9----------9\2|
You stay cool when life gets hectic
You're the only one I've been thinking of
E|------|
B|2-----|
G|2--1--|
D|2--2--|
A|---2--|
E|2-----|
Feel like I can never get close enough
E|-5------------7-------------------|
B|-5------------7-----9----------9\2|
G|-6------------8-----9----------9\2|
D|-7------------9-----9----------9\2|
A|-7------------9-------------------|
E|-5------------7-----9----------9\2|
I'm so drawn to you magnetic
But baby do what you're doing to me
E|------|
B|2-----|
G|2--1--|
D|2--2--|
A|---2--|
E|2-----|
Tuggin' on my heart, and never pulling away


[Verse 2: Traphik]

E|---5----------------------------7------|
B|---5----------------------------7-----9|
G|---6----------------------------8-----9|
D|---7----------------------------9-----9|
A|---7----------------------------9------|
E|---5----------------------------7-----9|
     You and me baby two pea's in a pod
E|----------------------------------------------|
B|-------------------------------------------9\2|
G|-------------------------------------------9\2|
D|-------------------------------------------9\2|
A|----------------------------------------------|
E|-------------------------------------------9\2|
Too good to be true like she's a mirage
When she walks by people freeze and applaud
E|------|
B|2-----|
G|2--1--|
D|2--2--|
A|---2--|
E|2-----|
Atheist see her bod and believe in God, yeah
E|---5----------------------------7------|
B|---5----------------------------7-----9|
G|---6----------------------------8-----9|
D|---7----------------------------9-----9|
A|---7----------------------------9------|
E|---5----------------------------7-----9|
One kiss is like crack to me
E|----------------------------------------------|
B|-------------------------------------------9\2|
G|-------------------------------------------9\2|
D|-------------------------------------------9\2|
A|----------------------------------------------|
E|-------------------------------------------9\2|
Like a trip to the sugar shack factory
She keep it cooler than strawberry daiquiris
E|------|
B|2-----|
G|2--1--|
D|2--2--|
A|---2--|
E|2-----|
So sweet that your scent be attracting bees
E|---5----------------------------7------|
B|---5----------------------------7-----9|
G|---6----------------------------8-----9|
D|---7----------------------------9-----9|
A|---7----------------------------9------|
E|---5----------------------------7-----9|
Snow White Cinderella you my Jasmine
E|----------------------------------------------|
B|-------------------------------------------9\2|
G|-------------------------------------------9\2|
D|-------------------------------------------9\2|
A|----------------------------------------------|
E|-------------------------------------------9\2|
Every other girl I knew was a has-been
Making me wanna sing and tap dance
E|------|
B|2-----|
G|2--1--|
D|2--2--|
A|---2--|
E|2-----|
Because I'm feeling like spring in past tense
E|---5----------------------------7------|
B|---5----------------------------7-----9|
G|---6----------------------------8-----9|
D|---7----------------------------9-----9|
A|---7----------------------------9------|
E|---5----------------------------7-----9|
And you probably won't get that right away
E|----------------------------------------------|
B|-------------------------------------------9\2|
G|-------------------------------------------9\2|
D|-------------------------------------------9\2|
A|----------------------------------------------|
E|-------------------------------------------9\2|
It's okay just want to dance the night away
So let's go take my hand and fly
E|------|
B|2-----|
G|2--1--|
D|2--2--|
A|---2--|
E|2-----|
Because this here is a connection we can't deny


[Hook: Tori Kelly]

E|-5------------7-------------------|
B|-5------------7-----9----------9\2|
G|-6------------8-----9----------9\2|
D|-7------------9-----9----------9\2|
A|-7------------9-------------------|
E|-5------------7-----9----------9\2|
You stay cool when life gets hectic
You're the only one I've been thinking of
E|------|
B|2-----|
G|2--1--|
D|2--2--|
A|---2--|
E|2-----|
Feel like I can never get close enough
E|-5------------7-------------------|
B|-5------------7-----9----------9\2|
G|-6------------8-----9----------9\2|
D|-7------------9-----9----------9\2|
A|-7------------9-------------------|
E|-5------------7-----9----------9\2|
I'm so drawn to you magnetic
But baby do what you're doing to me
E|------|
B|2-----|
G|2--1--|
D|2--2--|
A|---2--|
E|2-----|
Tuggin' on my heart, and never pulling away

E|---5----------------------------7------|
B|---5----------------------------7-----9|
G|---6----------------------------8-----9|
D|---7----------------------------9-----9|
A|---7----------------------------9------|
E|---5----------------------------7-----9| 
M is for the magic that brought us here
E|----------------------------------------------|
B|-------------------------------------------9\2|
G|-------------------------------------------9\2|
D|-------------------------------------------9\2|
A|----------------------------------------------|
E|-------------------------------------------9\2|
A is for the attraction that pulled us near
G is for the greatness we destined for
E|------|
B|2-----|
G|2--1--|
D|2--2--|
A|---2--|
E|2-----|
N is for that nasty behind closed doors
E|---5----------------------------7------|
B|---5----------------------------7-----9|
G|---6----------------------------8-----9|
D|---7----------------------------9-----9|
A|---7----------------------------9------|
E|---5----------------------------7-----9| 
E is for the experience for things we do
E|----------------------------------------------|
B|-------------------------------------------9\2|
G|-------------------------------------------9\2|
D|-------------------------------------------9\2|
A|----------------------------------------------|
E|-------------------------------------------9\2|
T is for the time I'll commit to you
I is for intense just like my feelings and
E|------|
B|2-----|
G|2--1--|
D|2--2--|
A|---2--|
E|2-----|
C is for the way you take me through the ceiling
... Yeah


[Bridge x2: Tori Kelly]

E|-5------------7-------------------|
B|-5------------7-----9----------9\2|
G|-6------------8-----9----------9\2|
D|-7------------9-----9----------9\2|
A|-7------------9-------------------|
E|-5------------7-----9----------9\2|
This magnetic connection, that all this attraction towards you
E|------|
B|2-----|
G|2--1--|
D|2--2--|
A|---2--|
E|2-----|
Can't pull away nor do, I want to


[Hook: Tori Kelly]

E|-5------------7-------------------|
B|-5------------7-----9----------9\2|
G|-6------------8-----9----------9\2|
D|-7------------9-----9----------9\2|
A|-7------------9-------------------|
E|-5------------7-----9----------9\2|
You stay cool when life gets hectic
You're the only one I've been thinking of
E|------|
B|2-----|
G|2--1--|
D|2--2--|
A|---2--|
E|2-----|
Feel like I can never get close enough
E|-5------------7-------------------|
B|-5------------7-----9----------9\2|
G|-6------------8-----9----------9\2|
D|-7------------9-----9----------9\2|
A|-7------------9-------------------|
E|-5------------7-----9----------9\2|
I'm so drawn to you magnetic
But baby do what you're doing to me
E|------|
B|2-----|
G|2--1--|
D|2--2--|
A|---2--|
E|2-----|
Tuggin' on my heart, and never pulling away


[Hook: Tori Kelly]

E|-5------------7-------------------|
B|-5------------7-----9----------9\2|
G|-6------------8-----9----------9\2|
D|-7------------9-----9----------9\2|
A|-7------------9-------------------|
E|-5------------7-----9----------9\2|
You stay cool when life gets hectic
You're the only one I've been thinking of
E|------|
B|2-----|
G|2--1--|
D|2--2--|
A|---2--|
E|2-----|
Feel like I can never get close enough
E|-5------------7-------------------|
B|-5------------7-----9----------9\2|
G|-6------------8-----9----------9\2|
D|-7------------9-----9----------9\2|
A|-7------------9-------------------|
E|-5------------7-----9----------9\2|
I'm so drawn to you magnetic
But baby do what you're doing to me
E|------|
B|2-----|
G|2--1--|
D|2--2--|
A|---2--|
E|2-----|
Tuggin' on my heart, and never pulling away

            
            
Suggest correction
Creating personal tab
Creating personal tab
You can edit any tab online and save it as your Personal.

You can edit, replace or remove any tab part or add personal notes – all changes will be seen only by you.

Personal tabs can be accessed anytime from any device, even offline.
Learn more »
Give kudos to tab author, rate the tab!
1 2 3 4 5
comments
print report bad tab
guest
You may want to rate the tab now too:
select rating
Wanna post a correction for this tab? Suggest correction