Oops, an error
Loading. Please wait.

Reality Unfolds tab

version 1
version 1

Whole song

5,775 views 3 this week
3 commentsread comments
1 2 3 4 5
x 6
add to favorites
×
Save as Personal and add changes to this tab that will be seen only by you. Learn more ›
×
You can save this tab as Personal to edit and correct it or add notes. All changes will be seen only by you. Learn more »
launch autoscroll
font size
0
reset
how to read this tab
guitar tuner
edit
Autoscroll
slow
fast
+/-
esc
set tempo
stop
TRAPPED UNDER ICE - REALITY UNFOLDS

    D|-----------------------|
    A|-----------------------|
GTR F|-----------------------|
 1  C|-2-----2-----3-2-----3-|
    G|-2-2-2-2-2-2-3-2-2-2-3-|
    D|-0-0-0-0-0-0-1-0-0-0-1-|
         P M   P M     P M

    D|-----------------------|
    A|-----------------------|
GTR F|-----------------------|
 2  C|-2-----------3-2-----3-|
    G|-2-----------3-2-2-2-3-|
    D|-0-----------1-0-0-0-1-|
                       P M

    D|---------------------------|
    A|---------------------------|
GTR F|---------------------------|
1+2 C|-----------------3-2-----3-| x3
    G|-2-2-2-2-2-2-2-2-3-2-2-2-3-|
    D|-0-0-0-0-0-0-0-0-1-0-0-0-1-|
       P M P M P M P M     P M 

    D|---------------------------|
    A|---------------------------|
GTR F|---------------------------|
1+2 C|-----------------7-8-------|
    G|-2-2-2-2-2-2-2-2-5-6-2-2-3-|
    D|-0-0-0-0-0-0-0-0-----0-0-1-|
       P M P M P M P M     P M

    D|---------------------------|
    A|---------------------------|
GTR F|---------------------------|
1+2 C|-----------------3-2-----3-| x4
    G|-2-2-2-2-2-2-2-2-3-2-2-2-3-|
    D|-0-0-0-0-0-0-0-0-1-0-0-0-1-|
       P M P M P M P M     P M 

    D|-------------------------------| 
    A|-------------------------------|
GTR F|-------------------------------|
 1  C|-------------------------------|
    G|-2-2-3-2-3/5-2-3-2-5-2-2-5-2-6-|
    D|-0-0-1-0-1/3-0-1-0-3-0-0-3-0-4-|
       P M   PM    PM  PM  P M   PM

    D|-------------------------------| 
    A|-------------------------------|
GTR F|-------------------------------|
1+2 C|-------------------------------| 1,2,3,4,6,7,8,9,
    G|-2-2-3-2-3/5-2-3-2-5-2-2-5-2-6-|
    D|-0-0-1-0-1/3-0-1-0-3-0-0-3-0-4-|
       P M   PM    PM  PM  P M   PM

    D|-------------------------------|
    A|-------------------------------|
GTR F|-------------------------------|
1+2 C|---------8------------3--3/6-5-| 5,10
    G|-2-2-2-2-6----2-2-2-2-3--3/6-5-|
    D|-0-0-0-0-6----0-0-0-0-1--1/4-3-|
       P M PM       P M P M

    D|---------------------------------------|
    A|---------------------------------------|
GTR F|---------------------------------------|
 1  C|---------------4------------6----3-3-3-|
    G|-2-3-5-3-6-5-3-4----2-3-5-3-6----3-3-3-|
    D|-0-1-3-1-4-3-1-2----0-1-3-1-4----1-1-1-|
       P M P M P MPM      P M P M       

    D|----------------------------------------|
    A|----------------------------------------|
GTR F|----------------------------------------|
 2  C|-2--------------------------------3-3-3-|
    G|-2--------------------------------3-3-3-|
    D|-0--------------------------------1-1-1-|

    D|---------------------------------------|
    A|---------------------------------------|
GTR F|---------------------------------------|
1+2 C|---------------4------------6----3-3-3-| x2
    G|-2-3-5-3-6-5-3-4----2-3-5-3-6----3-3-3-|
    D|-0-1-3-1-4-3-1-2----0-1-3-1-4----1-1-1-|
       P M P M P MPM      P M P M       

    D|------------------------------|
    A|------------------------------|
GTR F|------------------------------|
1+2 C|-2-2----2-------2-2----5/8--8-| 1,2,4
    G|-2-2----2-2-2-2-2-2----5/8--8-|
    D|-0-0----0-0-0-0-0-0----3/6--6-|
                P MPM

    D|------------------------------|
    A|------------------------------|
GTR F|------------------------------|
 1  C|-2-2----2-------2-2----5/8--8-| 3
    G|-2-2----2-2-2-2-2-2----5/8--8-|
    D|-0-0----0-0-0-0-0-0----3/6--6-|
                P MPM

    D|---------------------------------|
    A|---------------------------------|
GTR F|----/9-9-9-9-9-9-9-7-10-10-10-10-|
 2  C|---------------------------------| 3
    G|----/7-7-7-7-7-7-7-5-8--8--8--8--|
    D|---------------------------------|

    D|-------|
    A|-------|
GTR F|-------|
1+2 C|-2-3-3-|
    G|-2-3-3-|
    D|-0-1-1-|

    D|---------|
    A|---------|
GTR F|---------|
 1  C|-5/6-3/5-|
    G|-5/6-3/5-|
    D|-3/4-1/3-|

    D|-------------------------------| 
    A|-------------------------------|
GTR F|-------------------------------|
1+2 C|-------------------------------| 1,2,3,4
    G|-2-2-3-2-3/5-2-3-2-5-2-2-5-2-6-|
    D|-0-0-1-0-1/3-0-1-0-3-0-0-3-0-4-|
       P M   PM    PM  PM  P M   PM

    D|-------------------------------|
    A|-------------------------------|
GTR F|-------------------------------|
1+2 C|---------8------------3--3/6-5-| 5,
    G|-2-2-2-2-6----2-2-2-2-3--3/6-5-|
    D|-0-0-0-0-6----0-0-0-0-1--1/4-3-|
       P M PM       P M P M

    D|-----------------------------------24^(26)-|
    A|-------------------------------------------|
GTR F|-19^(21)--------21p19----------------------|
 1  C|----------------------19^(21)--------------|
    G|-------------------------------------------|
    D|-------------------------------------------|

    D|-------------------------------------------|
    A|-19p17-------------------------------------|
GTR F|-------19^(21)-----------------16^(18)-----|
 1  C|------------------14/16/17-----------------|
    G|-------------------------------------------|
    D|-------------------------------------------|

Guitar 2 is silent during solo.

    D|-----------------------|
    A|-----------------------|
GTR F|-----------------------|
 1  C|-2-----2-----3-2-----3-|
    G|-2-2-2-2-2-2-3-2-2-2-3-|
    D|-0-0-0-0-0-0-1-0-0-0-1-|
         P M   P M     P M

    D|-----------------------|
    A|-----------------------|
GTR F|-----------------------|
 2  C|----2------------------|
    G|-3--2------------------|
    D|-1--0------------------|
      PM

    D|-----------------------|
    A|-----------------------|
GTR F|-----------------------|
 1  C|-2-----2-----3-2-----3-|
    G|-2-2-2-2-2-2-3-2-2-2-3-|
    D|-0-0-0-0-0-0-1-0-0-0-1-|
         P M   P M     P M

    D|---------------------|
    A|---------------------|
GTR F|---------------------|
 2  C|-2----2----2----2----|
    G|-2----2----2----2----|
    D|-0----0----0----0----|

    D|-----------------------|
    A|-----------------------|
GTR F|-----------------------|
1+2 C|-2-----2-----3-2-----3-|
    G|-2-2-2-2-2-2-3-2-2-2-3-|
    D|-0-0-0-0-0-0-1-0-0-0-1-|
         P M   P M     P M

    D|---------------------------|
    A|---------------------------|
GTR F|---------------------------|
1+2 C|-----------------3-2-----3-| x3
    G|-2-2-2-2-2-2-2-2-3-2-2-2-3-|
    D|-0-0-0-0-0-0-0-0-1-0-0-0-1-|
       P M P M P M P M     P M 

    D|---------------------------|
    A|---------------------------|
GTR F|---------------------------|
1+2 C|-----------------7-8-------|
    G|-2-2-2-2-2-2-2-2-5-6-2-2-3-|
    D|-0-0-0-0-0-0-0-0-----0-0-1-|
       P M P M P M P M     P M

    D|---------------------------|
    A|---------------------------|
GTR F|---------------------------|
1+2 C|-----------------3-2-----3-| x4
    G|-2-2-2-2-2-2-2-2-3-2-2-2-3-|
    D|-0-0-0-0-0-0-0-0-1-0-0-0-1-|
       P M P M P M P M     P M 

            
            
Suggest correction
Creating personal tab
Creating personal tab
You can edit any tab online and save it as your Personal.

You can edit, replace or remove any tab part or add personal notes – all changes will be seen only by you.

Personal tabs can be accessed anytime from any device, even offline.
Learn more »
comments
print report bad tab
3 comments total.
0 reply
SOADbeast 46 Feb 12, 2013 07:32 PM

They play in D standard though

-1 reply
4f-ace 258 Sep 12, 2013 10:40 AM

you can play it in dropped d easily but the tab is wrong
it sounds just crappy and not like the real song
for example the intro part contains only open strings and 1st freds
so you 2nd fred is just the 1st and your 1st r just open strings
but nice that you uploaded it it made me practising the song thx

guest
You may want to rate the tab now too:
select rating
Wanna post a correction for this tab? Suggest correction