Oops, an error
Loading. Please wait.

Echo Tab

version 1
version 1

Whole song

Interactive

11,575 views 15 this week
3 commentsread comments
1 2 3 4 5
accurate
x 5
add to favorites
launch autoscroll
font size
0
reset
how to read this tab
guitar tuner
Autoscroll
slow
fast
+/-
esc
set tempo
stop
Help us to improve Ultimate-Guitar.com Take our survey!
×
Author
Trapt - Echo

Tabbed By: Timmy Chiasson
E-mail: amplified_band@hotmail.com

*=Harmonic

Intro
E---------------------------------------------------------------|
B---------------------------------------------------------------|
G---------------------------------------------------------------|
D----2---4---7-------2---4---------2---4---7-----2---4------7*--|
A----0---2---5-------0---2--4------0---2---5-----0---2---4------|
E---------------------------2----------------------------2------|
                    close my eyes...
A source tells me that this is the part to play here, repeat it a bunch, and play
it during the chorus too.

E: --0--2--4--5--4--2-------|
B: -------------------------|
G: -------------------------|
D: -------------------------|
A: -------------------------|
E: -------------------------|


then the intro with distortion.
E--------------------------------------------------------------------------|
B--------------------------------------------------------------------------|
G--------------------------------------------------------------------------|
D----------2---4---7-------2---4---------2---4---7-----2---4---------------|
A----------0---2---5-------0---2--4------0---2---5-----0---2---4-----------|
E---------------------------------2----------------------------2-----------|
Ill run away with you,.... By my side...
Verse
E--------5---5---4--4--4--------4--4--2--2--2------------------------------|
B--------------------------------------------------------------------------|
G--------------------------------------------------------------------------|
D--------------------------------------------------------------------------|
A--------------------------------------------------------------------------|
E--------------------------------------------------------------------------|
	I think about your face...

Then this with distortion
E-------------------------------------------------------------------|
B-------------------------------------------------------------------|
G-------------------------------------------------------------------|
D----------2---4---7-------2---4---------2---4---7-----2---4--------|
A----------0---2---5-------0---2--4------0---2---5-----0---2---4----|
E---------------------------------2----------------------------2----|
	Close my eyes

Not to sure about this part...any suggestions e-mail me.
play the first guitar part above that i said to play in the chorus here.
E--------------------------------------------------------|
B--------------------------------------------------------|
G--------------------------------------------------------|
D----------7-----7-----7---------4----4----4-------------|
A----------7-----7-----7---------4----4----4-------------|
E----------5-----5-----5---------2----2----2-------------|
	Asking whyyyy, ill run away with you
Then you go back to the verses.
Then to the intro with distortion, then this 2nd guitar part again.
Then back to the intro with distortion.

Also a little unsure of this interlude, but hey, first tab.
Repeat it a couple of times. use delay effect.
E--------9---7-------------------------------------|
B------------------10---9-----7--------------------|
G--------------------------------------------------|
D--------------------------------------------------|
A--------------------------------------------------|
E--------------------------------------------------|

Then go to the intro and play it clean.
Then play the part just after the intro, ill run away with you
Then its intro with distortion.
And that's all thats too it, not a hard song at all. Peace

[Chorus:]
Close my eyes
Let the whole thing pass me by
There is no time
To waste asking why
So I'll run away with you by my side
I need to let go, let go, let go, let go of this pride,
(Asking why)

I think about your face
And how I fall into your eyes
The outline that I trace
Around the one that I call mine
Time that called for space
Unclear where you drew the line
I don't need to solve this case
And I don't need to look behind

[Chorus]

Do I expect to change, the past I hold inside,
with all the words I say,
repeating over in my mind,
somethings you can't erase, no matter how hard you try,
an exit to escape is all there is left to find.

[x2]
Close my eyes
Let the whole thing pass me by
There is no time
To waste asking why
So I'll run away with you by my side
I need to let go, let go, let go, let go of this pride,
Until this echo in my mind
Until this echo, echo, echo, echo can subside
Suggest correction
comments
print report bad tab
3 comments total.
0 reply
Cap'n Crunch 93 wrote on February 8 2004, 12:00 am

I'm pretty sure that the introduction is not how it is written in this tab. Instead, I'm fairly certain that it is as follows. I don't recall the names of the chords, but here are the diagrams.

Chord 1 Chord 2 Chord 3 Chord 4
x|||||5th fret x|||||7th fret |x||||7th fret ||||||1st fret
|||||| |||||| |||||| |xx|||
|xx||| |xx||| ||xx|| ||||||

So, the progression for the introduction goes:

(Chord 1) (Chord 2) (Chord 3)
Close my eyes.
(Chord 1) (Chord 2) (Chord 4)
Let the whole thing pass me by.
(Chord 1) (Chord 2) (Chord 3)
There is no time
(Chord 1) (Chord 2) (Chord 4)
to waste...

0 reply
guitarman1507 81 wrote on February 16 2005, 12:00 am

Its good but i think that version three is better.

0 reply
sg_thrasher 10 wrote on December 11 2013, 10:50 pm

I know how to play this song well so i don't even really have reason to look for the tab but I wanted to see if anyone would confirm my idea that this song is in flat tuning. If it isnt i like playing it in flat because i am used to using these fingerings and if i make it standard tuning id have to move up one fret. Anyway, there's only one way to play this song and I'm mostly sure this is it. I do think that there is more than one guitarist but with practice you can put the different parts together to play the song decently solo.

Intro and half chorus(except harmonic E)
Eb---------------------------------------------------------12
Bb--------------------------------------------------------
Gb-----------7------------------------------7-----------
Db---7---9---7-----7---9---4------7----9----7-----7---9
Ab---7---9---5-----7---9---4------7----9----5-----7---9
Eb---5---7---------5---7---2------5----7----------5---7
Call this the lead in or something i dont know
Eb-----------------------------------------------------------------------2x
Bb-7-9-10-9-7----------9-10--9-10|-7-9-10-9-7---------9-10-6-10-9
Gb7-------------9-7-6-9-------9----|7-----------9-7-6-9-----------9
Db------------------------------------------------------------------------
Ab------------------------------------------------------------------------
Eb-------------------------------------------------------------------------

half chorus

Verse
Eb---5---5----4---4---4-|--4---4---2---2---2-| x4
Bb----5---5----5---5---5|---5---5---3---3---3|
Gb-7---7---7----6---6---|5---6---6---4---4---4\7
Db-------------------------------------------------
Ab-------------------------------------------------
Eb-------------------------------------------------

full chorus
Eb------------------------|-2-2-2-4-4-4-5-5-5-5-5-5-5-5-5-5
Bb------------------------|-3-3-3-5-5-5-7-7-7-7-7-7-7-7-7-7
Gb------7------------7----|-2-2-2-4-4-4-7-7-7-7-7-7-7-7-7-7
Db--7-9-7-7-9-4--7-9-7----|---------------------------------
Ab--7-9-5-7-9-4--7-9-5------------------------------------
Eb--5-7---5-7-2--5-7----|---------------------------------

Eb----------------------------|------------------------------------ x2
Bb7-7----7----7----7----7-----|-------7-10--7-10--------7-10---10-10
Gb----7-9--7-9--7-9- 79--9-7--|6-7-6------6-------6-7-6------6-------
Db----------------------------|---------------------------------------
Ab----------------------------|---------------------------------------
Eb----------------------------|---------------------------------------

bridge
Eb--------------------------x4|---------------------------x4--------------x2
Bb-14--12--12-----------------|-------12h14--------12h14---12h14p12--12
Gb--14--14---14--13-9-11------|14h16--------14h16---------------------14--
Db----------------------------|----------------------------------------------
Ab-------------------------- -|----------------------------------------------
Eb----------------------------|----------------------------------------------

Eb-------------------------------
Bb-------------------------------
Gb-14-13-14-13-11-13-11-9-11
Db--------------------------------
Ab--------------------------------
Eb--------------------------------
then another intro and half chorus and that is it.

Hope i didnt waste an hour for nothing. :)

guest
You may want to rate the tab now too:
select rating
Please do not post tabs as comments. Select "correction" instead!