Oops, an error
Loading. Please wait.

Echo Tab

version 5
version 5

Whole song

Interactive

15,538 views 1 this week
1 commentread comment
1 2 3 4 5
x 6
add to favorites
launch autoscroll
font size
0
reset
how to read this tab
guitar tuner
Autoscroll
slow
fast
+/-
esc
set tempo
stop
Help us to improve Ultimate-Guitar.com Take our survey!
×
Trapt-Echo

Tabbed by: Sam Antezana
E-mail:dragonov@earthlink.net


clean
E----------------------------------|
B----------------------------------|
G------------7---------------------| 
D----7---9---7------7---9---4------|  x2 
A----7---9---5------7---9---4------|
E----5---7----------5---7---2------|
             Close my eyes....


Guitar 1
E---------------------------------------------------------------------------
B-----9-10-9--------9-10-9------9-10-------9-10-9-----------10-9--------9-10
G11-9--------9----9--------9-11-------11-9--------9-11-9---------9-11-9-----
D--------------12----------------------------------------11-----------------
A---------------------------------------------------------------------------
E---------------------------------------------------------------------------
Do this 2 times


Guitar 2
clean
E--------------------------------|
B--------------------------------|
G--7-7-77-7-77-------------------|
D--7-7-77-7-77--9-9--4-44-4------|  X2
A--5-5-55-5-55--9-9--4-44-4------|
E---------------7-7--2-22-2------|


both guitars
distortion
E--------------------------------|
B--------------------------------|
G-----------7--------------------|
D---7---9---7-----7---9---4------|
A---7---9---5-----7---9---4------|
E---5---7---------5---7---2------|




only guitar 1
E---------------------------------------|
B----10---10---9--9--9---9--9--7--7--7--|
G------11---11--9--9--9---9--9--7--7--7-|
D---------------------------------------| X6
A---0----0----0--0--0---0--0--0--0--0---|
E---------------------------------------|



guitar 1
E-------------------------------------|
B---10101012121214141414141414141414--|
G---11111113131314141414141414141414--|
D-------------------------------------|
A-------------------------------------|
E-------------------------------------|

guitar 2
distortion
E--------------------------------|
B--------------------------------|
G-----------7--------------------|
D---7---9---7-----7---9---4------|X2
A---7---9---5-----7---9---4------|
E---5---7---------5---7---2------|



guitar 1
E--------------------------------5-------5-------5--|
B---7-55-7-55-7-55-7-55-7-55---------5-------5------|
G-----------------------------6h7-6h7-6h7-6h7-6h7---|
D---------------------------------------------------|
A---------------------------------------------------|
E---------------------------------------------------|


guitar 2
E----------------------------------------|
B----------------------------------------|
G---777777777777777----------------------|
D---777777777777777-777777-4444444444----|X2
A---555555555555555-777777-4444444444----|
E-------------------555555-2222222222----|

both guitars
distortion
E--------------------------------|
B--------------------------------|
G-----------7--------------------|
D---7---9---7-----7---9---4------|X4
A---7---9---5-----7---9---4------|
E---5---7---------5---7---2------|

guitar 1
echo
E---------------------------------------------------------------------------
B---9-h10-10-h12--9-h10-10-h12--9-h10-10-h12--9-h10-10-h12-12/14-12--12-----
G------------------------------------------------------------------14--14-13
D---------------------------------------------------------------------------
A---------------------------------------------------------------------------
E---------------------------------------------------------------------------

E------------------------|
B------------------------|
G-14-13-11-13-11-9/11----|
D------------------------|
A------------------------|
E------------------------|


clean
E----------------------------------|
B----------------------------------|
G------------7---------------------| 
D----7---9---7------7---9---4------|  x2 
A----7---9---5------7---9---4------|
E----5---7----------5---7---2------|


Guitar 1
E---------------------------------------------------------------------------
B-----9-10-9--------9-10-9------9-10-------9-10-9-----------10-9--------9-10
G11-9--------9----9--------9-11-------11-9--------9-11-9---------9-11-9-----
D--------------12----------------------------------------11-----------------
A---------------------------------------------------------------------------
E---------------------------------------------------------------------------
Do this 2 times


Guitar 2
clean
E--------------------------------|
B--------------------------------|
G--7-7-77-7-77-------------------|
D--7-7-77-7-77--9-9--4-44-4------|  X2
A--5-5-55-5-55--9-9--4-44-4------|
E---------------7-7--2-22-2------|


both guitars
distortion
E--------------------------------|
B--------------------------------|
G-----------7--------------------|
D---7---9---7-----7---9---4------|X4
A---7---9---5-----7---9---4------|
E---5---7---------5---7---2------|

let the last chord ring.
Suggest correction
comments
print report bad tab
1 comment total.
+1 reply
Trey3 93 Apr 21, 2009 10:55 AM

you really badly need to label your stuff. like this part is the verse and this is the chorus and all that stuff cause i am getting lost.

guest
You may want to rate the tab now too:
select rating
Wanna post a correction for this tab? Suggest correction