Oops, an error
Loading. Please wait.

Experience Acoustic Tab

version 1
version 1

Intro

Whole song

750 views 3 this week
no commentswrite comment
1 2 3 4 5
excellent!
x 1
add to favorites
launch autoscroll
font size
0
reset
how to read this tab
guitar tuner
Tab Pro tools
  • play this tab
  • loop segment
  • change instrument
  • show fretboard
  • metronome
Autoscroll
slow
fast
+/-
esc
set tempo
stop
Contributor
Song: Experience(Acoustic Version)
Artist: Trapt
Album: Reborn(Deluxe Edition)
Song Duration: 3:49
Tuning: Standard

There are two guitars. Guitar 1 is lead with riffs, Guitar 2 is rhythm with lots of chords.

Intro (0:00)
Guitar 1                                    
                              *  pluck  *
e|---5-5-5-5----------5-5--5-2-2-2-2-2-2--------| Repeat twice before the second guitar
B|----3-3-3-3-2-2-2---3-3-----3-3-3-3-3-3-5-5-5-| comes in. Listen for rhythm
G|----------------------------------------------| 4x total I believe
D|-0------------------0-------------------------| 
A|----------------------------------------------| 
E|----------------------------------------------|

Guitar 2 (0:14)
Ill just put the chords, strum patterns are obvious if you hear the song
e|-2--0--3--3--2--0--|
B|-3--3--3--3--3--3--| Come in after guitar 1 plays twice
G|-4--2--0--0--2--2--| Repeat 2x
D|-4--2--2--0--0--0--|
A|-2--x--3--2--x--x--|
E|-x--x--x--3--x--x--|

Verse 1 (0:28)

Guitar 1

e|----------------------------------------|
B|----------------3--5--7--8--3--5--7--8--|
G|----------------4--6--7--9--4--6--7--9--|
D|----------------------------------------|
A|----------------------------------------|
E|----------------------------------------|

Guitar 2

e|-2--0--2--0--2--0--2--3--2--0--2--2--|
B|-3--0--3--0--3--0--3--3--3--0--3--3--|
G|-4--0--4--0--4--0--4--0--4--0--4--0--|
D|-4--2--4--2--4--2--4--0--4--2--4--0--|
A|-2--2--2--2--2--2--2--2--2--2--2--2--|
E|-x--x--x--x--x--x--x--3--x--x--x--3--|

Chorus (0:55)

Guitar 1 and Guitar 2

e|-2--0--3--3--2--0--|
B|-3--3--3--3--3--3--| 
G|-4--2--0--0--2--2--| Repeat 4x
D|-4--2--2--0--0--0--|
A|-2--x--3--2--x--x--|
E|-x--x--x--3--x--x--|

Repeat Verse (1:23)
Repeat Chorus (1:50)

Bridge (2:18ish)
Repeat whole riff 4x then on 4th time do the last two parts of it twice. 
Guitar 1 and Guitar 2
    12x     2x       2x
e|-------------------|
B|-------------------|
G|-------------------| 
D|---4------4------4-|
A|-2------5------4---|
E|-------------------|

Repeat Chorus (2:46) to end

I submitted the Intro of this too, and I forgot to log in. If there is any way to 
change that, please do so UG. I swear it was me. And also again, this is for you 
Ellie!!! Get well soon! 
Please rate
And please go easy, Im only 16 and i do this for fun when im not doing sports
comments
We did not receive enough feedback on this tab! Please rate:
print report bad tab
1 2 3 4 5
I want to post or [tab]
guest
You may want to rate the tab now too:
select rating
Please do not post tabs as comments. Select "correction" instead!