Oops, an error
Loading. Please wait.

Headstrong Bass Tab

version 1
version 1

Whole song

8,786 views 3 this week
3 commentsread comments
1 2 3 4 5
accurate
x 3
add to favorites
launch autoscroll
font size
0
reset
guitar tuner
Autoscroll
slow
fast
+/-
esc
set tempo
stop
Help us to improve Ultimate-Guitar.com Take our survey!
×
Author
TRAPT-- Headstrong
Tabbed By: 1MP4Ct
E-mail: M4r1N3d3P@aol.com
I'm surprised nobody already had this tabbed its an easy song

Tuning: Low to High: BEADG


Intro/Chorus
G|---------------------------------------------------------------------------| 
D|---------------------------------------------------------------------------| 
A|---------------------------------------------------------------------------| 
E|---------------------------------------------------------------------------| 
B|----55------55-----5-0------33-----33------0-11-0--------------------------| Repeat X2

Verse:
G|--------------------------------------|         G|-----------------------------|
D|--------------------------------------|         D|-----------------------------|
A|--77777--77777---55555----------------|         A|----77777----7-9-10-9-7-9-7--|
E|--------------------------------------|         E|-----------------------------|
B|--------------------------------------|         B|-----------------------------| Repeat X2

Pre Chorus:
G|---------------------------------------------------------------------------| 
D|---------------------------------------------------------------------------| 
A|----77--------77777---------7----------55---------5555--------5------------| 
E|---------------------------------------------------------------------------| 
B|-----------5-------------5------------------------3-----------3------------| Repeat X2

p.s don't forget about the silence after the pre chorus  before the chorus kicks in


Order of The Song:

2x Intro
2x Verse
2x  Pre Chorus 
4x  Chorus

Repeat all of this twice
Suggest correction
Give kudos to tab author, rate the tab!
1 2 3 4 5
comments
print report bad tab
3 comments total.
0 reply
1MP4Ct 30 wrote on February 11 2004, 12:00 am

sorry about this but the correct way in the verse is


a[------77777--77777777----55555--3333333---]

and

a[------77777--7-9-10-9-7-9-7--55555--3333333--]

0 reply
1MP4Ct 30 wrote on March 12 2004, 12:00 am

this is not the guitar version its the bass you dumbass or cant you read

-1 reply
Chosen_One6969 40 wrote on August 6 2004, 12:00 am

wtf are u guys talking about. 7string? if u count the lines that is a 5 string.it maybe be wrong but that aint no ***in guitar u dumbassses

guest
You may want to rate the tab now too:
select rating
Wanna post a correction for this tab? Suggest correction