Oops, an error
Loading. Please wait.

Headstrong Tab

version 1
version 1
143,512 views 69 this week
49 commentsread comments
1 2 3 4 5
x 51
add to favorites
launch autoscroll
font size
0
reset
how to read this tab
guitar tuner
Autoscroll
slow
fast
+/-
esc
set tempo
stop
Help us to improve Ultimate-Guitar.com Take our survey!
×
Author
Tabbers playing skills
advanced ++
Headstrong-Trapt
Trapt

7 String:
B E A D G B E

< > = harmonics


[Intro]

e---------------------------------------------------------------|
b------7--7-------7--7------------5--5-------5--5---------------|
g-----------------------------------------------------7--5--5---|
d-----------------------------------------------------7--5--5---|
a-----------------------------------------------------5--3--3---|
e-7-7--------7-7-------------5-5--------5-5-----------5--3--3---|
b-5-5--------5-5-------------3-3--------3-3---------------------|
                                                         pm

x2
e---------------------------------------------------------------|
b------7--7-------7--7------------------5-5-------5-5-----------|
g---------------------------------------------------------------|
d---------------------------------------------------------------|
a---------------------------------------------------------------|
e-7-7--------7-7---------7-7-------5-5--------5-5----------3----|
b-5-5--------5-5---------5-5-------3-3--------3-3--------0-1----|

Fig. 1 (clean w/ flanger)

e---------------------------7-----------------------------------|
b---7-----7-----8-----7------------5-----5-----5---3-----3---0--|
g---------------------------------------------------------------|
d---------------------------------------------------------------|
a-7---7-7---7-7---7-7---7-7------5---5-5---5-5---3---3-3---3----|
e---------------------------------------------------------------|
b---------------------------------------------------------------|

Verses: Fig. 1 x4

Pre Chorus:

e-0-------------------------------------------------------------|
b-0-------------------------------------------------------------|
g---------------------------------------------------------------|
d---------------------------------------------------------------|
a---------------------------------------------------------------|
e-3--------------------------------------------------------3----|
b--------------------------------------------------------0-1----|

[Chorus]
x4
e---------------------------------------------------------------|
b------7--7-------7--7------------------5-5-------5-5-----------|
g---------------------------------------------------------------|
d---------------------------------------------------------------|
a---------------------------------------------------------------|
e-7-7--------7-7---------7-7-------5-5--------5-5----------3----|
b-5-5--------5-5---------5-5-------3-3--------3-3--------0-1----|

After Chorus

gtr. 2

e----------------------------------------------------------------------------|
b----------------------------------------------------------------------------|
g-13--13---13-11---9----------------13-11---14--13--11-9--9------------------|
d--x---x----x--x---x-----------------x--x----x---x---x-x--x------------------|
a-11--11---11--9---7----------------11--9---12--11---9-7--7------------------|
e----------------------------------------------------------------------------|
b----------------------------------------------------------------------------|

gtr. 1

e----------------------------------------------------------------------------|
b----------------------------------------------------------------------------|
g----------------------------------------------------------------------------|
d----------------------------------------------------------------------------|
a----------------------------------------------------------------------------|
e--7---7---7--------7--3----5--5-5---7--7---7----7----7--7--3---10-10---5-5--|
b--5---5---5--------5--1----3--3-3---5--5---5----5----5--5--1----8--8---3-3--|

gtr. 2

e----------------------------------------------------------------------------|
b----------------------------------------------------------------------------|
g-13--13---13-14---16---------------13-11---14--13--11-9--9------------------|
d--x---x----x--x----x----------------x--x----x---x---x-x--x------------------|
a-11--11---11-12---14---------------11--9---12--11---9-7--7------------------|
e----------------------------------------------------------------------------|
b----------------------------------------------------------------------------|

gtr. 1

e----------------------------------------------------------------------------|
b----------------------------------------------------------------------------|
g----------------------------------------------------------------------------|
d----------------------------------------------------------------------------|
a----------------------------------------------------------------------------|
e--7---7---7---7----7--3----5--5-5---7--7---7----7----7--7--3---10-10---5-5--|
b--5---5---5---5----5--1----3--3-3---5--5---5----5----5--5--1----8--8---3-3--|

Interlude: Fig. 1

before Interlude 2:

e----------------0--------------|
b-------------------------------|
g-------------------------------|
d-------------------------------|
a-------------------------------|
e-7-----------------------------|
b-5-----------------------------|

[Interlude 2]

gtr. 2

e----14-------14-------15-------14--------0-----|
b-----------------------------------------------|
g-------12-------12-------12-------12-----------|
d-14-------14-------14-------14-------14--------|
a-----------------------------------------------|
e-----------------------------------------------|
b-----------------------------------------------|

gtr. 3 w/ vibrato

e-----------------------------------------------|
b-----------------------------------------------|
g-<12>--------------------<7>-------------------|
d-----------------------------------------------|
a-----------------------------------------------|
e----------<12>-----<7>-------------------------|
b-----------------------------------------------|

gtr. 2

e----12-------12-------14-------12----0---------|
b-----------------------------------------------|
g-------11-------11-------11--------------------|
d-12-------12-------12-------12----14---14------|
a-----------------------------------------------|
e-----------------------------------------------|
b-----------------------------------------------|

gtr. 3 w/ vibrato

e-----------------------------------------------|
b-----------------------------------------------|
g-<12>--------------------<12>------------------|
d-----------------------------------------------|
a-----------------------------------------------|
e----------<12>-----<7>-------------------------|
b-----------------------------------------------|
x2

gtr. 2

e----14-------14-------15-------17-------15-----|
b-----------------------------------------------|
g-------12-------12-------12-------12-----------|
d-14-------14-------14-------14-------14--------|
a-----------------------------------------------|
e-----------------------------------------------|
b-----------------------------------------------|

gtr. 3 w/ vibrato

e-----------------------------------------------|
b-----------------------------------------------|
g-<12>--------------------<7>-------------------|
d-----------------------------------------------|
a-----------------------------------------------|
e----------<12>-----<7>-------------------------|
b-----------------------------------------------|

gtr. 2

e----12-------12-------14-------14-------14-------|
b-------------------------------------------------|
g-------11-------11-------11-------11-------11----|
d-12-------12-------12-------12-------12-------12-|
a-------------------------------------------------|
e-------------------------------------------------|
b-------------------------------------------------|

gtr. 3 w/ vibrato

e-----------------------------------------------|
b-----------------------------------------------|
g-<12>------------------------------------------|
d-----------------------------------------------|
a-------------------------<12>------------------|
e----------<12>-----<7>-------------------------|
b-----------------------------------------------|

Outro: Chorus

*from gw*

trevor jones
timmy91199@yahoo.ca



************************************

| x  Dead note

************************************
Suggest correction
comments
print report bad tab
49 comments total. Showing first comments. show 2 bad comments
-2 reply
fender_player89 10 Jun 04, 2003 12:00 AM

this tab is sooooo fu ckin wrong your a loser

guest
You may want to rate the tab now too:
select rating
Wanna post a correction for this tab? Suggest correction