Oops, an error
Loading. Please wait.
We have an official Headstrong tab made by UG professional guitarists. Check out the tab »
×
by Trapt
40,631 views 39 this week
11 commentsread comments
1 2 3 4 5
x 12
add to favorites
×
Save as Personal and add changes to this tab that will be seen only by you. Learn more ›
×
You can save this tab as Personal to edit and correct it or add notes. All changes will be seen only by you. Learn more »
launch autoscroll
font size
0
reset
how to read this tab
guitar tuner
backing track
0:00
0:00
edit
Autoscroll
slow
fast
+/-
esc
set tempo
stop
-----------------------------------------------------------------------------
                          Trapt - Headstrong
-----------------------------------------------------------------------------

This is the OST of the motion picture 'Tears of the Sun' and also the theme for 'WWE- Bad Blood 2003'

Tabbed by: Natansh Kilpady

Tuning: Dropped D (DADGBE)

[Riff 1] (Intro)
E|--------------------------------------|
B|------7-7----7-7------5-5---5-5-------|
G|--------------------------------------|
D|--44------44----44--22----22-----2-0--|
A|--44------44----44--22----22-----2-0--|
D|--44------44----44--22----22-----2-0--|

[Verse]
E|--------------------7------------------|
B|----7----7-----8-7------5----5/3-333---|
G|--9----9-----9--------7----7-----------|
D|---------------------------------------|
A|---------------------------------------|
D|---------------------------------------|

[Chorus]
E|--------------------------------------|
B|------7-7----7-7------5-5---5-5-------|
G|--------------------------------------|
D|--44------44----44--22----22-----2-0--|
A|--44------44----44--22----22-----2-0--|
D|--44------44----44--22----22-----2-0--|

[Post chorus]
E|--------------------------------------------------------------------------|
B|--------------------------------------------------------------------------|
G|---15--15-15-15-15--13--11--14--14-14-9--9-9-9-6--------------------------|
D|--------------------------------------------------------------------------|
A|---13--13-13-13-13--11--9---12--12-12-7--7-7-7-4--------------------------|
D|--------------------------------------------------------------------------|

E|------------------------------------------------------------------------------|
B|------------------------------------------------------------------------------|
G|---15--15-15-15-15--16--/18---14-14-9--9-9-9-6--------------------------------|
D|------------------------------------------------------------------------------|
A|---13--13-13-13-13--14--/16---12—12-7--7-7-7-4--------------------------------|
D|------------------------------------------------------------------------------|

[Last time after chorus]
E|--16-16-16-16-16h17—17p16—16p14-14-14---14-14-14-14—14h16—16p14--14-14-14-----------|
B|------------------------------------------------------------------------------------|
G|------------------------------------------------------------------------------------|
D|------------------------------------------------------------------------------------|
A|------------------------------------------------------------------------------------|
D|------------------------------------------------------------------------------------|

Order:
[Intro]
[Verse]
[Chorus] (Same as intro)
[Post Chorus]
[Verse]
[Chorus] (same as intro)
[Last time chorus] (above)
[Outro] (Same as intro)
-*-*-*-*-*-

If there is anything wrong in the above tab, send me the corrected version at
natansh_18@hotmail.com



************************************

| /  Slide up
| h  Hammer-on
| p  Pull-off

************************************

            
            
Suggest correction
Creating personal tab
Creating personal tab
You can edit any tab online and save it as your Personal.

You can edit, replace or remove any tab part or add personal notes – all changes will be seen only by you.

Personal tabs can be accessed anytime from any device, even offline.
Learn more »
comments
print report bad tab
11 comments total. Showing first comments.
0 reply
r0ckam3r1ca 10 Jun 29, 2006 03:25 PM

i cannot make this sound right at all. could you put in lyricsunderneath it so icould get the tempo right?

0 reply
les paul man 11 10 Nov 20, 2006 01:09 PM

you cant make it sound right cause its wrong

0 reply
dashboard1377 10 Sep 03, 2007 06:09 AM

its dropped C

guest
You may want to rate the tab now too:
select rating
Wanna post a correction for this tab? Suggest correction