Oops, an error
Loading. Please wait.

Lost Realist Bass Tab

940 views 1 this week
no commentswrite comment
1 2 3 4 5
please rate
add to favorites
launch autoscroll
font size
0
reset
guitar tuner
Autoscroll
slow
fast
+/-
esc
set tempo
stop
Help us to improve Ultimate-Guitar.com Take our survey!
×
Author
Difficulty
Tuning
intermediate
C G C F A D
Band: Trapt
Song: Lost Realist
Album: Someone In Control
Tabbed by: Florian P. (dogsmack)

Tuning: Drop C  (C G C F)


Intro                            (start at 0:08)
|----------------------------------------------|
|----------------------------------------------|    
|-3~-6~----------------------------------------|
|----------------------------------------------|  

Verse
|-----------------------------------------------------------------|
|-----------------------------------------------------8-6---------|    
|---------------------------3-33-3-33-33-6-66-6-66-66-----8-6-----| x 4
|-6-66-6b-66-6b-66-6b-66-67---------------------------------------|   

Pre-Chorus
|-------------------------------------------------------------------------------------------|
|------------------------------------------------------8------8--/121212h13p12h13p12h13p12--|    
|---------3-3-3-3---------3-3-3-3---------3-3-3-3-/-8-8-8-88-8-8----------------------------|
|-6-6-6-6---------6-6-6-6---------6-6-6-6---------------------------------------------------|  

Chorus
|----------------------------------------------|
|----------------------------------------------|    
|----------------------------------------------| x 4
|-6-6-6-66-6-6-10-10-10-1010-10-10-8-8---------|  

Verse
|-----------------------------------------------------------------|
|-----------------------------------------------------8-6---------|    
|---------------------------3-33-3-33-33-6-66-6-66-66-----8-6-----| x 5
|-6-66-6b-66-6b-66-6b-66-67---------------------------------------| 

Pre-Chorus
|-------------------------------------------------------------------------------------------|
|------------------------------------------------------8------8--/121212h13p12h13p12h13p12--|    
|---------3-3-3-3---------3-3-3-3---------3-3-3-3-/-8-8-8-88-8-8----------------------------|
|-6-6-6-6---------6-6-6-6---------6-6-6-6---------------------------------------------------|  

Chorus                           (last time leave the 8's away and play the 10's continously)
|----------------------------------------------|
|----------------------------------------------|    
|----------------------------------------------| x 4
|-6-6-6-66-6-6-10-10-10-1010-10-10-8-8---------|  

Break
|------------------------------------------|
|-----------------6-8-------------8-6------|    
|-------------6-8---------------------8-6--| x 3
|-6-6-6-6-6-6---------8-8-8-8-8-8----------|  

Break part 2
|----------------------------------------------------------------------------|
|----------------------------------8------8----------------------------------|    
|------3~--------3~--------3~---8-8-8-88-8-8--/1818181818h19p18h19p18h19p18--|
|-6~--------6~--------6~-----------------------------------------------------|  

Final Chorus               (last time end on 6~)
|----------------------------------------------|
|----------------------------------------------|    
|----------------------------------------------| x 8
|-6-6-6-66-6-6-10-10-10-1010-10-10-8-8---------|  


That's it!

This is how i play the song with my band! 

If anything's wrong, pls leave a comment!

Greetz from Hamburg, Germany!
Suggest correction
Give kudos to tab author, rate the tab!
1 2 3 4 5
comments
print report bad tab
guest
You may want to rate the tab now too:
select rating
Please do not post tabs as comments. Select "correction" instead!