Oops, an error
Loading. Please wait.

Love Hate Relationship Tab

1,988 views 3 this week
2 commentsread comments
1 2 3 4 5
excellent!
x 6
add to favorites
launch autoscroll
font size
0
reset
how to read this tab
guitar tuner
Tab Pro tools
  • play this tab
  • loop segment
  • change instrument
  • show fretboard
  • metronome
Autoscroll
slow
fast
+/-
esc
set tempo
stop
Contributor
Difficulty
novice
The tuning is really weird for this one. 
High:B
     Gb
     D
     A
     E
Low: B


Intro/Pre Chorus:
|-------------------|
|-------------------|
|----7-7-7-7-----12-|    x4
|2-2-7-7-7-7-7-x-12-|
|2-2-5-5-5-5-7-x-10-|
|0-0---------5-x----|

Verse:
|---------------|
|---------------|
|---------------|    x8
|5p4-5/2-5/2-2-2|
|---------------|
|---------------|

Pre Chorus   x3

Pre Chorus B
|--------------------------------|
|--------------------------------|
|5-5-5-5-5-5-5-5-7-7-7-7-7-7-7-7-|
|5-5-5-5-5-5-5-5-7-7-7-7-7-7-7-7-|
|3-3-3-3-3-3-3-3-5-5-5-5-5-5-5-5-|
|--------------------------------|

Chorus:
|------------------------------------------------|
|------------------------------------------------|
|------------5--5--5--5--7--7--7--7--------------|
|2--2--2--2--5--5--5--5--7--7--7--7--7--7--7--7--|   x2
|2--2--2--2--3--3--3--3--5--5--5--5--7--7--7--7--|
|0--0--0--0--------------------------5--5--5--5--|

and then play:
|--------------------------------|
|--------------------------------|
|5-5-5-5-5-5-5-5-------7-7-7-7-7-|
|5-5-5-5-5-5-5-5-5-5-5-7-7-7-7-7-|
|3-3-3-3-3-3-3-3-5-5-5-5-5-5-5-5-|
|----------------3-3-3-----------|

Verse 2

Pre Chorus

Chorus

Bridge:
|--------------------------|       |12---------10---12---------12---|
|--------------------------|       |---12--------------12------12---|
|--------------------------|   x2  |------12--------------12--------|
|2-2-x-2-2-x-2--2--2---2---|       |--------------------------------|
|2-2-x-2-2-x-2--2--2---2---|       |--------------------------------|
|0-0-x-0-0-x-0--0--0---0---|       |--------------------------------|

|------------------------------------|-------------------------------------|
|------15----15--------15----15------|------15----15---------15----15------|
|---------16--------------16-----14--|---------16---------------16-----17--|
|14h17-----------14h17---------------|14h17-----------14h17----------------|
|------------------------------------|-------------------------------------|
|------------------------------------|-------------------------------------|
                                     x2

And those are all the parts. Let me know if I screwed something up and rate please.
comments
print report bad tab
2 comments total.
0 reply
KrisBcreamSUCKS wrote on November 29 2013, 08:00 pm

WOW, THIS TAB IS LIKE IF A STUPID PERSON PLAYED A GUITAR DURRRR

0 reply
GrayGoose86 wrote on May 23 2014, 05:46 pm

I think you might want an F#m chord here instead of a Gb. That might be why it doesn't sound quite right

I want to post or [tab]
guest
You may want to rate the tab now too:
select rating
Please do not post tabs as comments. Select "correction" instead!