Oops, an error
Loading. Please wait.

Made Of Glass Tab

version 3
version 3

Whole song

Interactive

1,387 views 1 this week
no commentswrite comment
1 2 3 4 5
1 last vote to show rating
add to favorites
launch autoscroll
font size
0
reset
how to read this tab
guitar tuner
Autoscroll
slow
fast
+/-
esc
set tempo
stop
Help us to improve Ultimate-Guitar.com Take our survey!
×
Author
Trapt - Made of Glass

Tabbed by: Kjetil Nyjordet
E-mail: k_gutt@hotmail.com
Tuning: EADGBe

Intro

Clean
e|-----------------------------------------|
B|-----------------------------------------|
G|-9------------9--------------------------|
D|----10--12------10--10-9--10-9--10/12-10-|
A|-0--8---10---0-----------8-----10--------|
E|-------------------8---------------------|

verse
e|------------------------------|
B|------------------------------|
G|---9--------------------------|
D|-----10--10-9--10-9--10/12-10-| x4
A|--0-----------8-----10--------|
E|--------8---------------------|

Pre-chorus
Here you drag your finger(s)

Distortion
e|---------------|
B|---------------|
G|---------------|
D|---------------|
A|---------------|
E|-10/12\0-------|

Chorus:
e|-------------------------------|
B|-------------------------------|
G|-------------------------------|
D|-7-7-7-7-5-5--5-3-3-3-3-7-7--7-| x4
A|-7-7-7-7-3-3--3-3-3-3-3-5-5--5-|
E|-5-5-5-5-3-3--3-1-1-1-1-5-5--5-|

e|--------------------|
B|--------------------|
G|-----5^----5--------|
D|-5-5---7-7---10-9-5-|
A|-3-3---5-5---8--7-3-|
E|-3-3---5-5---8--7-3-|

Pre-verse:

Clean

Na ah, na ah, na ah, na ah
e|------------------------------|
B|------------------------------|
G|---9--------------------------|
D|-----10--10-9--10-9--10/12-10-| x2
A|--0-----------8-----10--------|
E|--------8---------------------|

verse:
e|------------------------------|
B|------------------------------|
G|---9--------------------------|
D|-----10--10-9--10-9--10/12-10-| x4
A|--0-----------8-----10--------|
E|--------8---------------------|

Chorus:

Distortion
e|-------------------------------|
B|-------------------------------|
G|-------------------------------|
D|-7-7-7-7-5-5--5-3-3-3-3-7-7--7-| x4
A|-7-7-7-7-3-3--3-3-3-3-3-5-5--5-|
E|-5-5-5-5-3-3--3-1-1-1-1-5-5--5-|

e|---------------------------------------------------|
B|---------------------------------------------------|
G|----5-----7------------------5------7--------------|
D|-5--5--7--7--10-9-5-5--5---5--5--7--7--10-9-5-5--5-|
A|-3--3--5--5--8--7-3-3--3---3--3--5--5--8--7-3-3--3-|
E|-3--3--5--5--8--7-3-3--3---3--3--5--5--8--7-3-3--3-|

e|----------------------------------------------|
B|----------------------------------------------|
G|-----5^----5------------------5-----7---------|
D|-5-5---7-7---10-9-5-5--5---5--5--7--7--10-9-5-|
A|-3-3---5-5---8--7-3-3--3---3--3--5--5--8--7-3-|
E|-3-3---5-5---8--7-3-3--3---3--3--5--5--8--7-3-|

Bridge:

Clean
e|----12-----0--------------------------------------------------|
B|--------0--------------------------------------------------12-|
G|-9------0-----------------------------------------------------|
D|---------------10-9--------12-10-9-----10-9--------12-10-9----| x2
A|-------------------10-10--10-------10------10-10--10----------|
E|--------------8-----------------------8-----------------------|

e|----12-----0----------------------------------------------------------------|
B|--------0-------------------------------------------------------------------|
G|-9------0--------------------------------12------12------12------12------12-|
D|---------------10-9--------12-10-9-----9----10-9----10-9----10-9----10-9----|
A|-------------------10-10--10-------10---------------------------------------|
E|--------------8-------------------------------------------------------------|


Guitar 1
Distortion
e|--------------------------------------|
B|--------------------------------------|
G|----5-----7---------------------------|
D|-5--5--7--7--10-10-10-10-10-10-10-10--| x4
A|-3--3--5--5--8--8--8--8--8--8--8--8---|
E|-3--3--5--5--8--8--8--8--8--8--8--8---|

Guitar 2
Clean
e|--------------------------------------|
B|--------------------------------------|
G|(---5-----7-)-12---12---12---12---12--| (This is the same as they play in the ending 
the bridge)
D|(5--5--7--7-)9--109--109--109--109----| x4
A|(3--3--5--5-)-------------------------|
E|(3--3--5--5-)-------------------------|

Outro:
Distortion
e|---------------------------------------------------|
B|---------------------------------------------------|
G|----5-----7-------------------5-----7--------------|
D|-5--5--7--7--10-9-5-5--5---5--5--7--7--10-9-5-5--5-|
A|-3--3--5--5--8--7-3-3--3---3--3--5--5--8--7-3-3--3-|
E|-3--3--5--5--8--7-3-3--3---3--3--5--5--8--7-3-3--3-|

e|----------------------------------------------|
B|----------------------------------------------|
G|-----5^----5------------------5-----7---------|
D|-5-5---7-7---10-9-5-5--5---5--5--7--7--10-9-5-|
A|-3-3---5-5---8--7-3-3--3---3--3--5--5--8--7-3-|
E|-3-3---5-5---8--7-3-3--3---3--3--5--5--8--7-3-|


| /  slide up
| \  slide down
| h  hammer-on
| p  pull-off
| ~  vibrato
| +  harmonic
| x  Mute note
===============================================================================
Suggest correction
Give kudos to tab author, rate the tab!
1 2 3 4 5
comments
print report bad tab
guest
You may want to rate the tab now too:
select rating
Wanna post a correction for this tab? Suggest correction