Oops, an error
Loading. Please wait.

Stand Up Tab

version 4
version 4

Whole song

Interactive

725 views 1 this week
no commentswrite comment
1 2 3 4 5
please rate
add to favorites
launch autoscroll
font size
0
reset
how to read this tab
guitar tuner
Tab Pro tools
  • play this tab
  • loop segment
  • change instrument
  • show fretboard
  • metronome
×
Best way to learn
"Stand Up"
Autoscroll
slow
fast
+/-
esc
set tempo
stop
Difficulty
novice
standard tuining for a 7 string

intro starts with a pick scrape.
distortion
e|-------------------|--------------------|
b|-------------------|--------------------|
G|-------------------|---------------7*---|only do the harmonic the 2nd time
D|-------------------|---------------7*---|
A|-------------------|--------------------|
E|-------------------|33333333------------| do this 4 times but on the last
B|3-1-3-1-3-4-3-1-3-1|11111111------------| instead of the power chord u do
                    PM--------------------|


e-----------------|
b-----------------|
G-----------------|
D-----------------|
A-----------------|
E-----------------|
B-1-3-1-3-1-3-----|PM the on the 1s


verse
clean with delay  do this 4 or 5 times then go back to the intro
e----------------------------------------|----------------------------|
b----------------------------------------|----------------------------|
G----------------------555555555555555555|----------------------------|
D------------777777----------------------|7777777---------------------|
A--555555555-----------------------------|--------55555555555---------|
E----------------------------------------|----------------------------|
B----------------------------------------|----------------------------|

then the chorus do that 4 times
e---------------------------------------|---------------------------------|
b---------------------------------------|---------------------------------|
G---------------------------------------|---------------------------------|
D--------------------10-10--------------|---------------------------------|
A-12-12--8--8-88888--8--8---10-10-101010|-12-12--8--8-8888---101010-101010|
E-10-10--6--6-66666--8--8---8--8--88888-|-10-10--6--6-8888---888----888---|
B-10-10--6--6-66666---------8--8--88888-|-10-10--6--6-6666---888----888---|

verse

intro

chorus


then some interlude or something its similar to the verse but with distortion and wah and delay

e----------------------------------------|-----------------------------|
b----------------------------------------|-----------------------------|
G--------------------------55555555555555|-----------------------------|
D-----------------777777-----------------|77777------------------------|
A----555555555---------------------------|---------5555555-------------|
E----------------------------------------|-----------------------------|
B----------------------------------------|-----------------------------|
do that a couple times but on the last time tremelo pick the 5th fret on the g string 
slide up to the 15th fret


intro

chorus

solo with wah
e|---------------------------------------|
b|---------------------------------------|
G|---------------------------------------|
D|---10h12~~---10h12~~----10h12~~-10h12~~|
A|---------------------------------------|
E|---------------------------------------|
B|---------------------------------------|


then when he says you want to see a reaction
you play
e---------------------------------------------------|
b---------------------------------------8/10-8-10/12|
G--5-6/9-7-10~-5--7~/9-7-9/10-9-10/12---------------|
A---------------------------------------------------|
D---------------------------------------------------|
E---------------------------------------------------|
B---------------------------------------------------|

ending
e---------------------------|
b---------------------------|
G---------------------------|
D---------------------------|
A--10-10--101010--10-10-8-12|
E--8--8---888888--8--8--6-10|
B--8--8---888888--8--8--6-10|


there you go
key
h: hammer on
~:vibrato
*:natural harmonic
comments
We did not receive enough feedback on this tab! Please rate:
print report bad tab
1 2 3 4 5
I want to post or [tab]
guest
You may want to rate the tab now too:
select rating
Please do not post tabs as comments. Select "correction" instead!