Oops, an error
Loading. Please wait.

Victim tab

version 1
version 1

Whole song

Interactive

by Trapt
1,585 views 1 this week
2 commentsread comments
1 2 3 4 5
1 last vote to show rating
add to favorites
×
Save as Personal and add changes to this tab that will be seen only by you. Learn more ›
×
You can save this tab as Personal to edit and correct it or add notes. All changes will be seen only by you. Learn more »
launch autoscroll
font size
0
reset
how to read this tab
guitar tuner
edit
Autoscroll
slow
fast
+/-
esc
set tempo
stop
Difficulty
Trapt
Victim
Tuning EADgbe

From Someone in Control.

Intro/Verse
Guitar One
----------------------|
----5---5---5---5-----|
--6---6---6---6---6---|
4---------------------|
----------------------|
----------------------|

Guitar Two
----------------------|
---77--99---10--------|
6---------------------|
----------------------|
----------------------|
----------------------|

----------------------|
---77--99---10--0-----|
6---------------------|
----------------------|
----------------------|
----------------------|

Prechorus
Guitar One
--------------------------------------------------------------|
--------------------------------------------------------------|
--------------------------------------------------------------|
4-4-4-4-----4-4-4-4-4---4-----4-4-4-4----4-4-4-4-4---4--------|
4-4-4-4-----4-4-4-4-4---4-----4-4-4-4----4-4-4-4-4---4--------|
4-4-4-4-----4-4-4-4-4---4-----4-4-4-4----4-4-4-4-4---4--------|

Guitar Two
play this second time through here
(---7-7-7-7-7-7-7-7-9-9-9-9-9-9-9-9-) on the b string

Chorus
Both Guitars
---------------------------------------------|
---------------------------------------------|
---------------------------------------------|
4-4-4-4----2-2---7-7----9-9-9-9-9/2-2-2-2----|
4-4-4-4----2-2---7-7----9-9-9-9-9/2-2-2-2----|
4-4-4-4----2-2---7-7----9-9-9-9-9/2-2-2-2----|


Fill after chorus two
-------------------|
-------------------|
4-4-4-4-4-4-4-4----|
4-4-4-4-4-4-4-4----|
4-4-4-4-4-4-4-4----|
p.m.

Interlude Part One
Guitar one - No Guitar Two
-----------------------------------------------------------|
-----------------------------------------------------------|
--------------6-6-6-6-6-6------------------6-6-6-6-8-9-----|
4-4-4-4-4-4-4--------------4-4-4-4-4-4-4-4-----------------|
-----------------------------------------------------------|
-----------------------------------------------------------|

Interlude Part Two
Guitar Two - No Guitar One
----------------------------------------------------|
12-12-12-12-12--10-10-10-10-10--9-9-9--5-5-5--------|
----------------------------------------------------|
----------------------------------------------------|
----------------------------------------------------|
----------------------------------------------------|

----------------------------------------------------|
12-12-12-12-12--10-10-10-10-10--9-9-9--7-7-7--------|
----------------------------------------------------|
----------------------------------------------------|
----------------------------------------------------|
----------------------------------------------------|
4x clean/ 2x Dist

Interlude Part Three
-Guitar one plays prechorus
-Guitar two plays interlude part two

Final Chorus Part 1
-Both guitars play normal

Final Chorus Part 2
-Guitar one plays the same

Guitar two does this little solo thing on the B and E strings
B-------------------------------------------------------- \
E-12-12-12-12-12--10-10-10-10--14-14-14-99-9-9-9------ -- \
                                                         > 2x
------------------------------------------------------ \  /
12-12-12-12-12--10-10-10-10-10--9-9-9--5-5-5---------- \ /

------------------------------------------------------|
12-12-12-12-12--10-10-10-10--14-14-14-99-9-9-9--------|

-------------------------------------9-12-9-----------|
12-12-12-12-12--10-10-10-10-10--9-12------------------|

14-14-14----------------------------------------------|
---------12-12--10-10-10-10--14-14-14-99-9-9-9--------|

---------------------------------------------|
12-12-12-12-12--10-10-10-10-10--9-9-9--5-5-5-|
Suggest correction
Creating personal tab
Creating personal tab
You can edit any tab online and save it as your Personal.

You can edit, replace or remove any tab part or add personal notes – all changes will be seen only by you.

Personal tabs can be accessed anytime from any device, even offline.
Learn more »
Give kudos to tab author, rate the tab!
1 2 3 4 5
comments
print report bad tab
2 comments total.
0 reply
bunkeredugly72 248 Jul 13, 2006 11:00 AM

The tab actually isnt bad. Ur tab style is a real mess. U were lazy. Tuning should be drop D. Other than that it looks good. I take a star off for laziness.

0 reply
IBANEZ-RG350EX 51 Oct 06, 2007 10:51 AM

The Chorus is (in E!):
|---------------------------------------------------------------|
|---------------------------------------------------------------|
|----------------7-7-7-7----------------------------------------|
|4-4-4-4-4-4-4-0-7-7-7-7-7-7-7-7-9-9-9-9-9-9-9\7-2-2-2-2-2-2-2-2|
|4-4-4-4-4-4-4-0-5-5-5-5-5-5-5-5-9-9-9-9-9-9-9\7-2-2-2-2-2-2-2-2|
|2-2-2-2-2-2-2---5-5-5-5-5-5-5-5-7-7-7-7-7-7-7\5-0-0-0-0-0-0-0-0|

guest
Wanna post a correction for this tab? Suggest correction