Oops, an error
Loading. Please wait.

Whos Going Home With You Tonight ukulele

version 1
version 1

Whole song

Interactive

by Trapt
76 views 1 this week
no commentswrite comment
1 2 3 4 5
3 more votes to show rating
add to favorites
×
Save as Personal and add changes to this tab that will be seen only by you. Learn more ›
×
You can save this tab as Personal to edit and correct it or add notes. All changes will be seen only by you. Learn more »
launch autoscroll
font size
0
reset
transpose
0
reset
display chords
guitar tuner
backing track
0:00
0:00
edit
Autoscroll
slow
fast
+/-
esc
set tempo
stop
Strumming
There is no strumming pattern for this song yet. and get +5 IQ
Song:Who's Going Home With You Tonight
Album:Only Through the Pain
Artist:Trapt
Date Tabbed:June,2008
Guitar Tabber:Ryan Manongdo/18/Vancouver,Ca
              rhyezkie@gmail.com(gtalk)
              no_falter0x@yahoo.com(YM,friendster,facebook&myspace)

For any comments,questions or suggestions,just post a comment or PM me.Pilipino Rules!!
 
Gtr.Legends:
. - palm muting
~ - let it ring

Gtr.Tuning:Standard(Normal)

Intro:
e|--------------------------------------------------------------------|
B|--------------------------------------------------------------------|
G|-44---88--66666----44---88--66666----44------66666----44---88--6~---|
D|-44---88--66666----44---88--66666----44--44--66666----44---88--6~---|
A|-22---66--44444----22---66--44444----22--44--44444----22---66--4~---|
E|-----------------------------------------22-------------------------|

Verse 1:Don't think we ever...
e|-----------------------------------|
B|-----------------------------------|
G|-44--44--44--44---88--88--66--66---| 2x
D|-44--44--44--44---88--88--66--66---|
A|-22--22--22--22---66--66--44--44---|
E|-----------------------------------|

Pre-Chorus:There's no one around...
e|---------------------------------------------------------------------------------------|
B|---------------------------------------------------------------------------------------|
G|----44----44----44----44------66----66----66----66------44----44----44----44--666666---|
D|----44----44----44----44------66----66----66----66------44----44----44----44--666666---|
A|-22-22-22-22-22-22-22-22---44-44-44-44-44-44-44-44---22-22-22-22-22-22-22-22--444444---|
E|---------------------------------------------------------------------------------------|
   ..    ..    ..    ..      ..    ..    ..    ..      ..    ..    ..    ..     ......

Chorus:Who's going home with you tonight...
e|-------------------------------------------------------------------|
B|-------------------------------------------------------------------|
G|-4444-8888-6666---4444-8888-6666---4444------6666---4444-8888-6~---|
D|-4444-8888-6666---4444-8888-6666---4444-4444-6666---4444-8888-6~---|
A|-2222-6666-4444---2222-6666-4444---2222-4444-4444---2222-6666-4~---|
E|----------------------------------------2222-----------------------|

Verse 2:Keeping secrets...
Play Verse 1

Repeat Pre-Chorus:

Repeat Chorus 2x:

Bridge:Why can't I hold...
e|---------------|
B|---------------|
G|-44444-66666---| 4x
D|-44444-66666---|
A|-22222-44444---|
E|---------------|
   ..... .....

Repeat Chorus:

Last Chord:
e|------|
B|------|
G|-6~---|
D|-6~---|
A|-4~---|
E|------|

End..


Who's Going Home With You Tonight Lyrics:

Verse 1: 
Don't think we ever really got it right (Got it right)
Both you and I have always kept it bottled up inside
Can you show me what it feels like? (Feels like)
To give yourself away (Why can't I hold on?)

Pre-Chorus
There's no one around who picks me up when I'm down,
Like you do (Why can't I hold on?)
And when you can't hear a sound will the silence melt you too?

Chorus:
Who's going home with you tonight?
Was it real or am I part of your collection?
Have you crossed the line?
Who's going home with you tonight?
Oh I feel that you're an open invitation
Is this how we say goodbye?

Verse 2:
Keeping secrets somewhere down below (Down below)
I wish you had the heart to tell me that you sold your soul
So many things you couldn't let me know (Let me know)
You had to run away (Why can't I hold on?)

Repeat

Chorus:
Who's going home with you tonight?
Was it real or am I part of your collection?
Have you crossed the line?
Who's going home with you tonight?
Oh I feel that you're an open invitation
Is this how we say goodbye? (Who's going home with you tonight?)
Goodbye! (Who's going home with you tonight?)
Can you tell me what is wrong and what is right?
Who's going home with you tonight?

Bridge:
Why can't I hold on to you?
Why can't I hold on to you? (Why can't I hold on to you?)
It's getting harder to sit here alone
And I've been waiting, I've been waiting, and you still lay home
I have never ever felt so low
I've been thinking, I've been thinking, of where did you go?

Chorus:
Who's going home with you tonight?
Was it real or am I part of your collection?
Have you crossed the line?
Who's going home with you tonight?
Oh I feel that you're an open invitation
Is this how we say goodbye? (Who's going home with you tonight?)

Outro:
Goodbye! (Who's going home with you tonight?)
Can you tell me what is wrong and what is right?
Who's going home with you tonight?


            
            
Suggest correction
Creating personal tab
Creating personal tab
You can edit any tab online and save it as your Personal.

You can edit, replace or remove any tab part or add personal notes – all changes will be seen only by you.

Personal tabs can be accessed anytime from any device, even offline.
Learn more »
Give kudos to tab author, rate the tab!
1 2 3 4 5
comments
print report bad tab
guest
Wanna post a correction for this tab? Suggest correction