Oops, an error
Loading. Please wait.

Fyra Tab

version 1
version 1

Whole song

4,838 views 6 this week
3 commentsread comments
1 2 3 4 5
please rate
add to favorites
launch autoscroll
font size
0
reset
how to read this tab
guitar tuner
Autoscroll
slow
fast
+/-
esc
set tempo
stop
Help us to improve Ultimate-Guitar.com Take our survey!
×
Author
Tuning: Drop D


|-----------------------|
|-----------------------|
|-----------------------|
|----0--6--3--5--3--2---|
|----0--6--3--5--3--2---|
|----0--6--3--5--3--2---|
     *  *  *  *  *  *


|-----------------------|
|-----------------------|
|-----------------------|
|----0--6--3--5--3--2---|
|----0--6--3--5--3--2---|
|----0--6--3--5--3--2---|

|-------------------------------|
|-------------------------------|
|-------------------------------|
|----0--6--3--5--3--2---------2-|
|----0--6--3--5--3--2---------2-|
|----0--6--3--5--3--2---------2-|
     *  *  *  *  *  *       hold
Suggest correction
Give kudos to tab author, rate the tab!
1 2 3 4 5
comments
print report bad tab
3 comments total.
0 reply
Glenmeye 70 wrote on April 5 2013, 03:57 pm

The chords are ok, but they are not in Drop D. The tuning for the song is Standart E.
It would sound to "dark" tuning the low E string to D

0 reply
Glenmeye 70 wrote on April 5 2013, 04:03 pm

Sorry, I didn't mean Standard E..
Its Half Step Down (Eb)

0 reply
Glenmeye 70 wrote on April 5 2013, 03:58 pm

|-----------------------|
|-----------------------|
|-----------------------|
|----2--8--5--7--5--4---|
|----2--8--5--7--5--4---|
|----0--6--3--5--3--2---|
* * * * * *

|-----------------------|
|-----------------------|
|-----------------------|
|----2--8--5--7--5--4---|
|----2--8--5--7--5--4---|
|----0--6--3--5--3--2---|

|-------------------------------|
|-------------------------------|
|-------------------------------|
|----2--8--5--7--5--4---------4-|
|----2--8--5--7--5--4---------4-|
|----0--6--3--5--3--2---------2-|
* * * * * * hold

guest
You may want to rate the tab now too:
select rating
Wanna post a correction for this tab? Suggest correction