Oops, an error
Loading. Please wait.

You Took My Breath Away Chords

version 1
version 1

Whole song

Interactive

6,721 views 15 this week
2 commentsread comments
1 2 3 4 5
x 7
add to favorites
×
Save as Personal and add changes to this tab that will be seen only by you. Learn more ›
×
You can save this tab as Personal to edit and correct it or add notes. All changes will be seen only by you. Learn more »
save as personal
new!
launch autoscroll
font size
0
reset
transpose
0
reset
simplify chords
display chords
guitar tuner
Autoscroll
slow
fast
+/-
esc
set tempo
stop
Author
Strumming
There is no strumming pattern for this song yet. and get +5 IQ
This file is all my own work.If you have avy corrections,mail me at:krysov@bk.ru

Another harrisong.

Chords:EADGBE
Cadd9: *32030
E7:    022130
       C        G
Riff:E:-----------
     B:-----------
     G:-----------
     D:-----2-3-0-
     A:-3-5-------
     E:-----------

Intro: C Cadd9 C (riff)
G                  C (riff)
You took my breath away
G              C    (riff)
I want it back again
G                 C  (riff)
Look at the mess I'm in
G              C      
I don't know what to say
A7             Dm
I don't know how to feel
G               C
You don't care anyway
A7            Dm
All I can do is wait
G                  C       Riff
You took my breath away

You took this song of mine
And changed the middle bit
It used to sound alright
But now the words don't fit
It's getting hard to rhyme
Impossible to play
I've tried it many times
G               C       E
You took my breath away
E        E7              Am
One day when the sun is shining
D           D7            Fm   G  C riff
There will be that silver lining

You knocked my headlights out
So turn them on again
I can't see where I'm going
I can't tell where I've been

I don't know how to feel
This hasn't been my day
Seems like I've lost a wheel
You took my breath away

A7 Dm G C A7 Dm
G                   C
You took my breath away
G                   C
You took my breath away
G                   C
You took my breath away

P.S.If you have solo to this beautiful song, please post it here.
Suggest correction
comments
print report bad tab
2 comments total.
0 reply
thamlett 75 Mar 07, 2015 11:11 AM

I think it should be:

D D7 Dm7 G C riff
There will be that silver lining

0 reply
ter61xl 10 Jul 07, 2017 03:32 AM

The solo I believe is a slide...but to play it without would be

E-----5--------------------------------------
B--5----5---8 6-6-------8-----6-5-5---5-6-8-8
G-----------------------7-----7--------------
D---------------------------------------------
A--------------------------------------------
E---------------------------------------------

E---------11--------------------------------
B-----6---------5-6-8-8-6-6---------------
G-------------------------------------------
D---------------------------------------------
A--------------------------------------------
E---------------------------------------------

guest
You may want to rate the tab now too:
select rating
Wanna post a correction for this tab? Suggest correction