Oops, an error
Loading. Please wait.

Billionaire tab

version 8
1,098 views 1 this week
no commentswrite comment
1 2 3 4 5
3 more votes to show rating
add to favorites
×
Save as Personal and add changes to this tab that will be seen only by you. Learn more ›
×
You can save this tab as Personal to edit and correct it or add notes. All changes will be seen only by you. Learn more »
launch autoscroll
font size
0
reset
how to read this tab
guitar tuner
edit
Autoscroll
slow
fast
+/-
esc
set tempo
stop
Author
Difficulty
This is my first tab, so go easy on me.

I got bored and figured out a way to play this song if you like the rap, yet you don't 
an amazing singing voice.

I put the chords and tabs for the lyrics.  I don't know the names of the chords, 
just the positions.


Have fun putting it all together :) and look up my band Born For This on facebook.

kingsky1992@hotmail.com


**********GUITAR 1**********

I want to be a billionaire, so fucking bad; buy all of the things i've never had
-----------------------------------------------|
-----------------------------------------------|
-/6-6-6-6-6-9-11-6-4/2-1-2-----2---4/6-4-2---4-|
---------------------------4-4---4---------4---|
-----------------------------------------------|
-----------------------------------------------|


I want to be on the cover of, Forbes Magazine; smiling next to Opera and the Queen
-----------------------------------------------|
-----------------------------------------------|
-/6-6-6-6-6-9-11-6-4/2-1-2-----2---4/6-4-2---4-|
---------------------------4-4---4---------4---|
-----------------------------------------------|
-----------------------------------------------|


Ohh everytime I close my eyes, I see my name in shinging lights
-----------------------------------------------|
-----------------------------------------------|
9-11-11-11-11-9-11-6-----9-11-11-11-11-9-11-6--|
-----------------------------------------------|
-----------------------------------------------|
-----------------------------------------------|


A different city everynight, ohh, I, I swear
-----------------------------------------------|
-----------------------------------------------|
11-11-11-9-9-11-13-14-13-11-9-7----------------|
-----------------------------------------------|
-----------------------------------------------|
-----------------------------------------------|


The world better prepare, for when I'm a billionaire
------------------------------------------------|
------------------------------------------------|
7-7-7-9-11-9/11-9----9-9-14-13-11-9-11-11-11-11-|
------------------------------------------------|
------------------------------------------------|
------------------------------------------------|


Verse:

   v  ^     v     v  ^     v          v  ^     v     v  ^     v
----5--5--x--5--x--5--5--x--5---------9--9--x--9--x--9--9--x--9--|
----5--5--x--5--x--5--5--x--5---------9--9--x--9--x--9--9--x--9--|
----6--6--x--6--x--6--6--x--6---------10-10-x--10-x--10-10-x--10-|
----7--7--x--7--x--7--7--x--7---------9--9--x--9--x--9--9--x--9--|
----7--7--x--7--x--7--7--x--7---------11-11-x--11-x--11-11-x--11-|
-5--5--5--x--5--x--5--5--x--5------9--9--9--x--9--x--9--9--x--9--|

    v  ^     v     v ^      v         v  ^     v     v  ^     v
----9--9--x--9--x--9--9--x--9---------7--7--x--7--x--7--7--x--7-|
----x--x--x--x--x--x--x--x--x---------x--x--x--x--x--x--x--x--x-|
----11-11-x--11-x--11-11-x--11--------9--9--x--9--x--9--9--x--9-|
----11-11-x--11-x--11-11-x--11--------9--9--x--9--x--9--9--x--9-|
-9--9--9--x--9--x--9--9--x--9------7--7--7--x--7--x--7--7--x--7-|
----------------------------------------------------------------|

   v  ^     v     v  ^     v          v  ^     v     v  ^     v
----5--5--x--5--x--5--5--x--5---------9--9--x--9--x--9--9--x--9--|
----5--5--x--5--x--5--5--x--5---------9--9--x--9--x--9--9--x--9--|
----6--6--x--6--x--6--6--x--6---------10-10-x--10-x--10-10-x--10-|
----7--7--x--7--x--7--7--x--7---------9--9--x--9--x--9--9--x--9--|
----7--7--x--7--x--7--7--x--7---------11-11-x--11-x--11-11-x--11-|
-5--5--5--x--5--x--5--5--x--5------9--9--9--x--9--x--9--9--x--9--|

    v  ^     v     v ^      v         v  ^     v     v  ^     v
----9--9--x--9--x--9--9--x--9---------7--7--x--7--x--7--7--x--7-|
----x--x--x--x--x--x--x--x--x---------x--x--x--x--x--x--x--x--x-|
----11-11-x--11-x--11-11-x--11--------9--9--x--9--x--9--9--x--9-|
----11-11-x--11-x--11-11-x--11--------9--9--x--9--x--9--9--x--9-|
-9--9--9--x--9--x--9--9--x--9------7--7--7--x--7--x--7--7--x--7-|
----------------------------------------------------------------|

   v  ^     v     v  ^     v          v  ^     v     v  ^     v
----5--5--x--5--x--5--5--x--5---------9--9--x--9--x--9--9--x--9--|
----5--5--x--5--x--5--5--x--5---------9--9--x--9--x--9--9--x--9--|
----6--6--x--6--x--6--6--x--6---------10-10-x--10-x--10-10-x--10-|
----7--7--x--7--x--7--7--x--7---------9--9--x--9--x--9--9--x--9--|
----7--7--x--7--x--7--7--x--7---------11-11-x--11-x--11-11-x--11-|
-5--5--5--x--5--x--5--5--x--5------9--9--9--x--9--x--9--9--x--9--|

    v  ^     v     v ^      v         v  ^     v     v  ^     v
----9--9--x--9--x--9--9--x--9---------7--7--x--7--x--7--7--x--7-|
----x--x--x--x--x--x--x--x--x---------x--x--x--x--x--x--x--x--x-|
----11-11-x--11-x--11-11-x--11--------9--9--x--9--x--9--9--x--9-|
----11-11-x--11-x--11-11-x--11--------9--9--x--9--x--9--9--x--9-|
-9--9--9--x--9--x--9--9--x--9------7--7--7--x--7--x--7--7--x--7-|
----------------------------------------------------------------|

Chorus:

-----------------------------------------------|
-----------------------------------------------|
9-11-11-11-11-9-11-6-----9-11-11-11-11-9-11-6--|
-----------------------------------------------|
-----------------------------------------------|
-----------------------------------------------|


-----------------------------------------------|
-----------------------------------------------|
11-11-11-9-9-11-13-14-13-11-9-7----------------|
-----------------------------------------------|
-----------------------------------------------|
-----------------------------------------------|


------------------------------------------------|
------------------------------------------------|
7-7-7-9-11-9/11-9----9-9-14-13-11-9-11-11-11-11-|
------------------------------------------------|
------------------------------------------------|
------------------------------------------------|

Post Chorus:

--------------|
--------------|
-4/6-0-4/6-4--|
--------------|
--------------|

Verse:

   v  ^     v     v  ^     v          v  ^     v     v  ^     v
----5--5--x--5--x--5--5--x--5---------9--9--x--9--x--9--9--x--9--|
----5--5--x--5--x--5--5--x--5---------9--9--x--9--x--9--9--x--9--|
----6--6--x--6--x--6--6--x--6---------10-10-x--10-x--10-10-x--10-|
----7--7--x--7--x--7--7--x--7---------9--9--x--9--x--9--9--x--9--|
----7--7--x--7--x--7--7--x--7---------11-11-x--11-x--11-11-x--11-|
-5--5--5--x--5--x--5--5--x--5------9--9--9--x--9--x--9--9--x--9--|

    v  ^     v     v ^      v         v  ^     v     v  ^     v
----9--9--x--9--x--9--9--x--9---------7--7--x--7--x--7--7--x--7-|
----x--x--x--x--x--x--x--x--x---------x--x--x--x--x--x--x--x--x-|
----11-11-x--11-x--11-11-x--11--------9--9--x--9--x--9--9--x--9-|
----11-11-x--11-x--11-11-x--11--------9--9--x--9--x--9--9--x--9-|
-9--9--9--x--9--x--9--9--x--9------7--7--7--x--7--x--7--7--x--7-|
----------------------------------------------------------------|

   v  ^     v     v  ^     v          v  ^     v     v  ^     v
----5--5--x--5--x--5--5--x--5---------9--9--x--9--x--9--9--x--9--|
----5--5--x--5--x--5--5--x--5---------9--9--x--9--x--9--9--x--9--|
----6--6--x--6--x--6--6--x--6---------10-10-x--10-x--10-10-x--10-|
----7--7--x--7--x--7--7--x--7---------9--9--x--9--x--9--9--x--9--|
----7--7--x--7--x--7--7--x--7---------11-11-x--11-x--11-11-x--11-|
-5--5--5--x--5--x--5--5--x--5------9--9--9--x--9--x--9--9--x--9--|

    v  ^     v     v ^      v         v  ^     v     v  ^     v
----9--9--x--9--x--9--9--x--9---------7--7--x--7--x--7--7--x--7-|
----x--x--x--x--x--x--x--x--x---------x--x--x--x--x--x--x--x--x-|
----11-11-x--11-x--11-11-x--11--------9--9--x--9--x--9--9--x--9-|
----11-11-x--11-x--11-11-x--11--------9--9--x--9--x--9--9--x--9-|
-9--9--9--x--9--x--9--9--x--9------7--7--7--x--7--x--7--7--x--7-|
----------------------------------------------------------------|

   v  ^     v     v  ^     v          v  ^     v     v  ^     v
----5--5--x--5--x--5--5--x--5---------9--9--x--9--x--9--9--x--9--|
----5--5--x--5--x--5--5--x--5---------9--9--x--9--x--9--9--x--9--|
----6--6--x--6--x--6--6--x--6---------10-10-x--10-x--10-10-x--10-|
----7--7--x--7--x--7--7--x--7---------9--9--x--9--x--9--9--x--9--|
----7--7--x--7--x--7--7--x--7---------11-11-x--11-x--11-11-x--11-|
-5--5--5--x--5--x--5--5--x--5------9--9--9--x--9--x--9--9--x--9--|


    v  ^     v     v ^      v         v  ^     v     v  ^     v
----9--9--x--9--x--9--9--x--9---------7--7--x--7--x--7--7--x--7-|
----x--x--x--x--x--x--x--x--x---------x--x--x--x--x--x--x--x--x-|
----11-11-x--11-x--11-11-x--11--------9--9--x--9--x--9--9--x--9-|
----11-11-x--11-x--11-11-x--11--------9--9--x--9--x--9--9--x--9-|
-9--9--9--x--9--x--9--9--x--9------7--7--7--x--7--x--7--7--x--7-|
----------------------------------------------------------------|

Chorus 2:

-----------------------------------------------|
-----------------------------------------------|
-/6-6-6-6-6-9-11-6-4/2-1-2-----2---4/6-4-2---4-|
---------------------------4-4---4---------4---|
-----------------------------------------------|
-----------------------------------------------|

-----------------------------------------------|
-----------------------------------------------|
-/6-6-6-6-6-9-11-6-4/2-1-2-----2---4/6-4-2---4-|
---------------------------4-4---4---------4---|
-----------------------------------------------|
-----------------------------------------------|

-----------------------------------------------|
-----------------------------------------------|
9-11-11-11-11-9-11-6-----9-11-11-11-11-9-11-6--|
-----------------------------------------------|
-----------------------------------------------|
-----------------------------------------------|

-----------------------------------------------|
-----------------------------------------------|
11-11-11-9-9-11-13-14-13-11-9-7----------------|
-----------------------------------------------|
-----------------------------------------------|
-----------------------------------------------|

------------------------------------------------|
------------------------------------------------|
7-7-7-9-11-9/11-9----9-9-14-13-11-9-11-11-11-11-|
------------------------------------------------|
------------------------------------------------|
------------------------------------------------|

Post Chorus:

--------------|
--------------|
-4/6-0-4/6-4--|
--------------|
--------------|

--------------|
--------------|
-4/6-0-4/6-4--|
--------------|
--------------|

Outro:
----------------------------------|
----------------------------------|
--6-6-6-6-6-9-11-6---6-4/2-1(b)---|  If you can't bend on the last note
----------------------------------|  play the 6th fret on the D string.
----------------------------------|
----------------------------------|

**********GUITAR 2**********

Intro:

   v  ^     v     v  ^     v          v  ^     v     v  ^     v
----5--5--x--5--x--5--5--x--5---------9--9--x--9--x--9--9--x--9--|
----5--5--x--5--x--5--5--x--5---------9--9--x--9--x--9--9--x--9--|
----6--6--x--6--x--6--6--x--6---------10-10-x--10-x--10-10-x--10-|
----7--7--x--7--x--7--7--x--7---------9--9--x--9--x--9--9--x--9--|
----7--7--x--7--x--7--7--x--7---------11-11-x--11-x--11-11-x--11-|
-5--5--5--x--5--x--5--5--x--5------9--9--9--x--9--x--9--9--x--9--|


    v  ^     v     v ^      v         v  ^     v     v  ^     v
----9--9--x--9--x--9--9--x--9---------7--7--x--7--x--7--7--x--7-|
----x--x--x--x--x--x--x--x--x---------x--x--x--x--x--x--x--x--x-|
----11-11-x--11-x--11-11-x--11--------9--9--x--9--x--9--9--x--9-|
----11-11-x--11-x--11-11-x--11--------9--9--x--9--x--9--9--x--9-|
-9--9--9--x--9--x--9--9--x--9------7--7--7--x--7--x--7--7--x--7-|
----------------------------------------------------------------|


   v  ^     v     v  ^     v          v  ^     v     v  ^     v
----5--5--x--5--x--5--5--x--5---------9--9--x--9--x--9--9--x--9--|
----5--5--x--5--x--5--5--x--5---------9--9--x--9--x--9--9--x--9--|
----6--6--x--6--x--6--6--x--6---------10-10-x--10-x--10-10-x--10-|
----7--7--x--7--x--7--7--x--7---------9--9--x--9--x--9--9--x--9--|
----7--7--x--7--x--7--7--x--7---------11-11-x--11-x--11-11-x--11-|
-5--5--5--x--5--x--5--5--x--5------9--9--9--x--9--x--9--9--x--9--|


    v  ^     v     v ^      v         v  ^     v     v  ^     v
----9--9--x--9--x--9--9--x--9---------7--7--x--7--x--7--7--x--7-|
----x--x--x--x--x--x--x--x--x---------x--x--x--x--x--x--x--x--x-|
----11-11-x--11-x--11-11-x--11--------9--9--x--9--x--9--9--x--9-|
----11-11-x--11-x--11-11-x--11--------9--9--x--9--x--9--9--x--9-|
-9--9--9--x--9--x--9--9--x--9------7--7--7--x--7--x--7--7--x--7-|
----------------------------------------------------------------|


    v  ^     v     v  ^     v     v  ^     v     v   ^    v
----7--7--x--7-----9--9--x--9-----11-11-x--11-x--11-11-x--11-x-|
----x--x--x--x-----x--x--x--x-----x--x--x--x--x--x--x--x--x--x-|
----7--7--x--7-----9--9--x--9-----11-11-x--11-x--11-11-x--11-x-|
----7--7--x--7-----9--9--x--9-----11-11-x--11-x--11-11-x--11-x-|
-5--5--5--x--5--7--7--7--x--7--9--9--9--x--9--x--9--9--x--9--x-|
---------------------------------------------------------------|

    v  ^     v     v  ^     v     v  ^     v     v   ^    v
----7--7--x--7-----9--9--x--9-----11-11-x--11-x--11-11-x--11-x-|
----x--x--x--x-----x--x--x--x-----x--x--x--x--x--x--x--x--x--x-|
----7--7--x--7-----9--9--x--9-----11-11-x--11-x--11-11-x--11-x-|
----7--7--x--7-----9--9--x--9-----11-11-x--11-x--11-11-x--11-x-|
-5--5--5--x--5--7--7--7--x--7--9--9--9--x--9--x--9--9--x--9--x-|
---------------------------------------------------------------|


    v  ^     v     v  ^     v  v  v  ^  v  v  ^  v  v  ^  v  v  ^
----5--5--x--5-----7--7--x--7--x--x--x--x--x--x--x--x--x--x--x--x-|
----x--x--x--x-----x--x--x--x--x--x--x--x--x--x--x--x--x--x--x--x-|
----7--7--x--7-----9--9--x--9--14-14-14-14-14-14-7--7--7--5--5--5-|
----7--7--x--7-----9--9--x--9--14-14-14-14-14-14-7--7--7--5--5--5-|
-5--5--5--x--5--7--7--7--x--7--12-12-12-11-11-11-9--9--9--7--7--7-|
------------------------------------------------------------------|


 v  v  ^  v  v  ^  v  v  ^  v  v  ^  v  v  ^  v  v  ^  v  v  ^  v  v  ^
-5--5--5--5--5--5--5--5--5--5--5--5--7--7--7--7--7--7--7--7--7--7--7--7-|
-x--x--x--x--x--x--x--x--x--x--x--x--x--x--x--x--x--x--x--x--x--x--x--x-|
-7--7--7--7--7--7--7--7--7--7--7--7--9--9--9--9--9--9--9--9--9--9--9--9-|
-7--7--7--7--7--7--7--7--7--7--7--7--9--9--9--9--9--9--9--9--9--9--9--9-|
-5--5--5--5--5--5--5--5--5--5--5--5--7--7--7--7--7--7--7--7--7--7--7--7-|
------------------------------------------------------------------------|

 v   v   v  v
-9~--9~--9--9---|
-x~--x~--x--x---|
-11~-11~-11-11--|
-11~-11~-11-11--|
-9~--9~--9--9---|
----------------|

Verse: (x3)

   v  ^     v     v  ^     v          v  ^     v     v  ^     v
----5--5--x--5--x--5--5--x--5---------9--9--x--9--x--9--9--x--9--|
----5--5--x--5--x--5--5--x--5---------9--9--x--9--x--9--9--x--9--|
----6--6--x--6--x--6--6--x--6---------10-10-x--10-x--10-10-x--10-|
----7--7--x--7--x--7--7--x--7---------9--9--x--9--x--9--9--x--9--|
----7--7--x--7--x--7--7--x--7---------11-11-x--11-x--11-11-x--11-|
-5--5--5--x--5--x--5--5--x--5------9--9--9--x--9--x--9--9--x--9--|


    v  ^     v     v ^      v         v  ^     v     v  ^     v
----9--9--x--9--x--9--9--x--9---------7--7--x--7--x--7--7--x--7-|
----x--x--x--x--x--x--x--x--x---------x--x--x--x--x--x--x--x--x-|
----11-11-x--11-x--11-11-x--11--------9--9--x--9--x--9--9--x--9-|
----11-11-x--11-x--11-11-x--11--------9--9--x--9--x--9--9--x--9-|
-9--9--9--x--9--x--9--9--x--9------7--7--7--x--7--x--7--7--x--7-|
----------------------------------------------------------------|


Chorus:

    v  ^     v     v  ^     v     v  ^     v     v   ^    v
----7--7--x--7-----9--9--x--9-----11-11-x--11-x--11-11-x--11-x-|
----x--x--x--x-----x--x--x--x-----x--x--x--x--x--x--x--x--x--x-|
----7--7--x--7-----9--9--x--9-----11-11-x--11-x--11-11-x--11-x-|
----7--7--x--7-----9--9--x--9-----11-11-x--11-x--11-11-x--11-x-|
-5--5--5--x--5--7--7--7--x--7--9--9--9--x--9--x--9--9--x--9--x-|
---------------------------------------------------------------|


    v  ^     v     v  ^     v     v  ^     v     v   ^    v
----7--7--x--7-----9--9--x--9-----11-11-x--11-x--11-11-x--11-x-|
----x--x--x--x-----x--x--x--x-----x--x--x--x--x--x--x--x--x--x-|
----7--7--x--7-----9--9--x--9-----11-11-x--11-x--11-11-x--11-x-|
----7--7--x--7-----9--9--x--9-----11-11-x--11-x--11-11-x--11-x-|
-5--5--5--x--5--7--7--7--x--7--9--9--9--x--9--x--9--9--x--9--x-|
---------------------------------------------------------------|


    v  ^     v     v  ^     v  v  v  ^  v  v  ^  v  v  ^  v  v  ^
----5--5--x--5-----7--7--x--7--x--x--x--x--x--x--x--x--x--x--x--x-|
----x--x--x--x-----x--x--x--x--x--x--x--x--x--x--x--x--x--x--x--x-|
----7--7--x--7-----9--9--x--9--14-14-14-14-14-14-7--7--7--5--5--5-|
----7--7--x--7-----9--9--x--9--14-14-14-14-14-14-7--7--7--5--5--5-|
-5--5--5--x--5--7--7--7--x--7--12-12-12-11-11-11-9--9--9--7--7--7-|
------------------------------------------------------------------|


 v  v  ^  v  v  ^  v  v  ^  v  v  ^  v  v  ^  v  v  ^  v  v  ^  v  v  ^
-5--5--5--5--5--5--5--5--5--5--5--5--7--7--7--7--7--7--7--7--7--7--7--7-|
-x--x--x--x--x--x--x--x--x--x--x--x--x--x--x--x--x--x--x--x--x--x--x--x-|
-7--7--7--7--7--7--7--7--7--7--7--7--9--9--9--9--9--9--9--9--9--9--9--9-|
-7--7--7--7--7--7--7--7--7--7--7--7--9--9--9--9--9--9--9--9--9--9--9--9-|
-5--5--5--5--5--5--5--5--5--5--5--5--7--7--7--7--7--7--7--7--7--7--7--7-|
------------------------------------------------------------------------|

 v   v   v  v
-9~--9~--9--9---|
-x~--x~--x--x---|
-11~-11~-11-11--|
-11~-11~-11-11--|
-9~--9~--9--9---|
----------------|

post chorus:
    v  ^     v     v  ^     v      v  ^     v     v  ^     v
----9--9--x--9--x--9--9--x--9------7--7--x--7--x--7--7--x--7---|
----x--x--x--x--x--x--x--x--x------x--x--x--x--x--x--x--x--x---|
----11-11-x--11-x--11-11-x--11-----9--9--x--9--x--9--9--x--9---|
----11-11-x--11-x--11-11-x--11-----9--9--x--9--x--9--9--x--9---|
-9--9--9--x--9--x--9--9--x--9---7--7--7--x--7--x--7--7--x--7---|
---------------------------------------------------------------|


    v  ^     v     v  ^     v      v  ^     v     v  ^     v
----9--9--x--9--x--9--9--x--9------7--7--7--7--7--7--7--7--7---|
----x--x--x--x--x--x--x--x--x------x--x--x--x--x--x--x--x--x---|
----11-11-x--11-x--11-11-x--11-----9--9--x--9--x--9--9--x--9---|
----11-11-x--11-x--11-11-x--11-----9--9--x--9--x--9--9--x--9---|
-9--9--9--x--9--x--9--9--x--9---7--7--7--x--7--x--7--7--x--7---|
---------------------------------------------------------------|


Verse:

   v  ^     v     v  ^     v          v  ^     v     v  ^     v
----5--5--x--5--x--5--5--x--5---------9--9--x--9--x--9--9--x--9--|
----5--5--x--5--x--5--5--x--5---------9--9--x--9--x--9--9--x--9--|
----6--6--x--6--x--6--6--x--6---------10-10-x--10-x--10-10-x--10-|
----7--7--x--7--x--7--7--x--7---------9--9--x--9--x--9--9--x--9--|
----7--7--x--7--x--7--7--x--7---------11-11-x--11-x--11-11-x--11-|
-5--5--5--x--5--x--5--5--x--5------9--9--9--x--9--x--9--9--x--9--|

    v  ^     v     v ^      v         v  ^     v     v  ^     v
----9--9--x--9--x--9--9--x--9---------7--7--x--7--x--7--7--x--7-|
----x--x--x--x--x--x--x--x--x---------x--x--x--x--x--x--x--x--x-|
----11-11-x--11-x--11-11-x--11--------9--9--x--9--x--9--9--x--9-|
----11-11-x--11-x--11-11-x--11--------9--9--x--9--x--9--9--x--9-|
-9--9--9--x--9--x--9--9--x--9------7--7--7--x--7--x--7--7--x--7-|
----------------------------------------------------------------|

   v  ^     v     v  ^     v          v  ^     v     v  ^     v
----5--5--x--5--x--5--5--x--5---------9--9--x--9--x--9--9--x--9--|
----5--5--x--5--x--5--5--x--5---------9--9--x--9--x--9--9--x--9--|
----6--6--x--6--x--6--6--x--6---------10-10-x--10-x--10-10-x--10-|
----7--7--x--7--x--7--7--x--7---------9--9--x--9--x--9--9--x--9--|
----7--7--x--7--x--7--7--x--7---------11-11-x--11-x--11-11-x--11-|
-5--5--5--x--5--x--5--5--x--5------9--9--9--x--9--x--9--9--x--9--|

    v  ^     v     v ^      v         v  ^     v     v  ^     v
----9--9--x--9--x--9--9--x--9---------7--7--x--7--x--7--7--x--7-|
----x--x--x--x--x--x--x--x--x---------x--x--x--x--x--x--x--x--x-|
----11-11-x--11-x--11-11-x--11--------9--9--x--9--x--9--9--x--9-|
----11-11-x--11-x--11-11-x--11--------9--9--x--9--x--9--9--x--9-|
-9--9--9--x--9--x--9--9--x--9------7--7--7--x--7--x--7--7--x--7-|
----------------------------------------------------------------|

   v  ^     v     v  ^     v          v  ^     v     v  ^     v
----5--5--x--5--x--5--5--x--5---------9--9--x--9--x--9--9--x--9--|
----5--5--x--5--x--5--5--x--5---------9--9--x--9--x--9--9--x--9--|
----6--6--x--6--x--6--6--x--6---------10-10-x--10-x--10-10-x--10-|
----7--7--x--7--x--7--7--x--7---------9--9--x--9--x--9--9--x--9--|
----7--7--x--7--x--7--7--x--7---------11-11-x--11-x--11-11-x--11-|
-5--5--5--x--5--x--5--5--x--5------9--9--9--x--9--x--9--9--x--9--|

    v  ^     v     v ^      v         v  ^     v     v  ^     v
----9--9--x--9--x--9--9--x--9---------7--7--x--7--x--7--7--x--7-|
----x--x--x--x--x--x--x--x--x---------x--x--x--x--x--x--x--x--x-|
----11-11-x--11-x--11-11-x--11--------9--9--x--9--x--9--9--x--9-|
----11-11-x--11-x--11-11-x--11--------9--9--x--9--x--9--9--x--9-|
-9--9--9--x--9--x--9--9--x--9------7--7--7--x--7--x--7--7--x--7-|
----------------------------------------------------------------|


Chorus 2:

   v  ^     v     v  ^     v          v  ^     v     v  ^     v
----5--5--x--5--x--5--5--x--5---------9--9--x--9--x--9--9--x--9--|
----5--5--x--5--x--5--5--x--5---------9--9--x--9--x--9--9--x--9--|
----6--6--x--6--x--6--6--x--6---------10-10-x--10-x--10-10-x--10-|
----7--7--x--7--x--7--7--x--7---------9--9--x--9--x--9--9--x--9--|
----7--7--x--7--x--7--7--x--7---------11-11-x--11-x--11-11-x--11-|
-5--5--5--x--5--x--5--5--x--5------9--9--9--x--9--x--9--9--x--9--|


    v  ^     v     v ^      v         v  ^     v     v  ^     v
----9--9--x--9--x--9--9--x--9---------7--7--x--7--x--7--7--x--7-|
----x--x--x--x--x--x--x--x--x---------x--x--x--x--x--x--x--x--x-|
----11-11-x--11-x--11-11-x--11--------9--9--x--9--x--9--9--x--9-|
----11-11-x--11-x--11-11-x--11--------9--9--x--9--x--9--9--x--9-|
-9--9--9--x--9--x--9--9--x--9------7--7--7--x--7--x--7--7--x--7-|
----------------------------------------------------------------|


   v  ^     v     v  ^     v          v  ^     v     v  ^     v
----5--5--x--5--x--5--5--x--5---------9--9--x--9--x--9--9--x--9--|
----5--5--x--5--x--5--5--x--5---------9--9--x--9--x--9--9--x--9--|
----6--6--x--6--x--6--6--x--6---------10-10-x--10-x--10-10-x--10-|
----7--7--x--7--x--7--7--x--7---------9--9--x--9--x--9--9--x--9--|
----7--7--x--7--x--7--7--x--7---------11-11-x--11-x--11-11-x--11-|
-5--5--5--x--5--x--5--5--x--5------9--9--9--x--9--x--9--9--x--9--|


    v  ^     v     v ^      v         v  ^     v     v  ^     v
----9--9--x--9--x--9--9--x--9---------7--7--x--7--x--7--7--x--7-|
----x--x--x--x--x--x--x--x--x---------x--x--x--x--x--x--x--x--x-|
----11-11-x--11-x--11-11-x--11--------9--9--x--9--x--9--9--x--9-|
----11-11-x--11-x--11-11-x--11--------9--9--x--9--x--9--9--x--9-|
-9--9--9--x--9--x--9--9--x--9------7--7--7--x--7--x--7--7--x--7-|
----------------------------------------------------------------|


    v  ^     v     v  ^     v     v  ^     v     v   ^    v
----7--7--x--7-----9--9--x--9-----11-11-x--11-x--11-11-x--11-x-|
----x--x--x--x-----x--x--x--x-----x--x--x--x--x--x--x--x--x--x-|
----7--7--x--7-----9--9--x--9-----11-11-x--11-x--11-11-x--11-x-|
----7--7--x--7-----9--9--x--9-----11-11-x--11-x--11-11-x--11-x-|
-5--5--5--x--5--7--7--7--x--7--9--9--9--x--9--x--9--9--x--9--x-|
---------------------------------------------------------------|

    v  ^     v     v  ^     v     v  ^     v     v   ^    v
----7--7--x--7-----9--9--x--9-----11-11-x--11-x--11-11-x--11-x-|
----x--x--x--x-----x--x--x--x-----x--x--x--x--x--x--x--x--x--x-|
----7--7--x--7-----9--9--x--9-----11-11-x--11-x--11-11-x--11-x-|
----7--7--x--7-----9--9--x--9-----11-11-x--11-x--11-11-x--11-x-|
-5--5--5--x--5--7--7--7--x--7--9--9--9--x--9--x--9--9--x--9--x-|
---------------------------------------------------------------|


    v  ^     v     v  ^     v  v  v  ^  v  v  ^  v  v  ^  v  v  ^
----5--5--x--5-----7--7--x--7--x--x--x--x--x--x--x--x--x--x--x--x-|
----x--x--x--x-----x--x--x--x--x--x--x--x--x--x--x--x--x--x--x--x-|
----7--7--x--7-----9--9--x--9--14-14-14-14-14-14-7--7--7--5--5--5-|
----7--7--x--7-----9--9--x--9--14-14-14-14-14-14-7--7--7--5--5--5-|
-5--5--5--x--5--7--7--7--x--7--12-12-12-11-11-11-9--9--9--7--7--7-|
------------------------------------------------------------------|


 v  v  ^  v  v  ^  v  v  ^  v  v  ^  v  v  ^  v  v  ^  v  v  ^  v  v  ^
-5--5--5--5--5--5--5--5--5--5--5--5--7--7--7--7--7--7--7--7--7--7--7--7-|
-x--x--x--x--x--x--x--x--x--x--x--x--x--x--x--x--x--x--x--x--x--x--x--x-|
-7--7--7--7--7--7--7--7--7--7--7--7--9--9--9--9--9--9--9--9--9--9--9--9-|
-7--7--7--7--7--7--7--7--7--7--7--7--9--9--9--9--9--9--9--9--9--9--9--9-|
-5--5--5--5--5--5--5--5--5--5--5--5--7--7--7--7--7--7--7--7--7--7--7--7-|
------------------------------------------------------------------------|

 v   v   v  v
-9~--9~--9--9---|
-x~--x~--x--x---|
-11~-11~-11-11--|
-11~-11~-11-11--|
-9~--9~--9--9---|
----------------|


Post chorus:

    v  ^     v     v  ^     v      v  ^     v     v  ^     v
----9--9--x--9--x--9--9--x--9------7--7--x--7--x--7--7--x--7---|
----x--x--x--x--x--x--x--x--x------x--x--x--x--x--x--x--x--x---|
----11-11-x--11-x--11-11-x--11-----9--9--x--9--x--9--9--x--9---|
----11-11-x--11-x--11-11-x--11-----9--9--x--9--x--9--9--x--9---|
-9--9--9--x--9--x--9--9--x--9---7--7--7--x--7--x--7--7--x--7---|
---------------------------------------------------------------|


    v  ^     v     v  ^     v      v  ^     v     v  ^     v
----9--9--x--9--x--9--9--x--9------7--7--7--7--7--7--7--7--7---|
----x--x--x--x--x--x--x--x--x------x--x--x--x--x--x--x--x--x---|
----11-11-x--11-x--11-11-x--11-----9--9--x--9--x--9--9--x--9---|
----11-11-x--11-x--11-11-x--11-----9--9--x--9--x--9--9--x--9---|
-9--9--9--x--9--x--9--9--x--9---7--7--7--x--7--x--7--7--x--7---|
---------------------------------------------------------------|


Outro:

 v     v
-5~~~--9~~~
-5~~~--9~~~
-6~~~--10~~
-7~~~--9~~~
-7~~~--11~~
-5~~~--9~~~

            
            
Suggest correction
Creating personal tab
Creating personal tab
You can edit any tab online and save it as your Personal.

You can edit, replace or remove any tab part or add personal notes – all changes will be seen only by you.

Personal tabs can be accessed anytime from any device, even offline.
Learn more »
Give kudos to tab author, rate the tab!
1 2 3 4 5
comments
print report bad tab
guest
You may want to rate the tab now too:
select rating
Wanna post a correction for this tab? Suggest correction