Oops, an error
Loading. Please wait.

Afterglow Chords

7,553 views 6 this week
1 commentread comment
1 2 3 4 5
accurate
x 6
add to favorites
launch autoscroll
font size
0
reset
transpose
0
reset
simplify chords
display chords
guitar tuner
Autoscroll
slow
fast
+/-
esc
set tempo
stop
Help us to improve Ultimate-Guitar.com Take our survey!
×
Hi this is my first tab, i wanted to get more tabs for the new travis album so i thought id have a go at
one myself.

Travis : Afterglow
2001

tabbed by simon welch

G: 320033
G2: 320003


 intro: G G2 G G2 G2

 ------------------------------------------------------------------|
 3--3--5--5--7--7--8--8--------------------------------------------|
 ------------------------------------------------------------------|
 ------------------------------------------------------------------|
 ------------------------------------------------------------------|
 ------------------------------------------------------------------|


  G       G2       G         G2   EM
  Feeling myself all of the time, All of the time feeling alright

  G        G2      G         G2   EM
  Taking a while raising a smile. Raising a smile makes it all worthwhile

  C         D          C         D         C         D            C
  But if you wanted to find peace of mind. Then you could find it any

   D               EM                    G       G2          G        G2
  time you liked. You are the afterglow. Feeling my way all of the time

  EM               G               G2            G               G2
  doing just fine. Taking a page out of my life, Out of my life wouldn't

   EM         C          D         C              D    C
  it be nice, but if you wanted to find peace of mind, then you could

  D          C                EM                      G
  find it any time you liked. You are the afterglow, you are the midnight

        BM                 C  EM                       BM
  show. The only one i know, you come and then you go, and when you

   C                EM
  finally leave you leave nothing for me.


  (repeat intro lick)
Suggest correction What's this?
You can suggest a correction to this tab. Community and Mods will review your correction and vote to approve or reject it.
comments
print report bad tab
1 comment total.
0 reply
canopener 11 wrote on May 5 2007, 10:41 am

Hey! Good tab, but it is a bit easier to play like this:
e -------0-0---2-2--3-3--|
B --3-3------------------|

instead of

e ------------------------------------------------------------------|
B 3--3--5--5--7--7--8--8--------------------------------------------|

I want to post or [tab]
guest
You may want to rate the tab now too:
select rating
Please do not post tabs as comments. Select "correction" instead!