Oops, an error
Loading. Please wait.

Battleships Bass Tab

version 1
version 1

Whole song

Interactive

819 views 1 this week
no commentswrite comment
1 2 3 4 5
3 more votes to show rating
add to favorites
launch autoscroll
font size
0
reset
guitar tuner
Autoscroll
slow
fast
+/-
esc
set tempo
stop
Help us to improve Ultimate-Guitar.com Take our survey!
×
Author
Difficulty
Tuning
intermediate
D A D G B E
Battleships - Travis
Album - The Boy With No Name
Bass Tab

Tabbed By : Cameron Forbes
it is a really good song and i believe i ve nailed this tab perfectly, i ve marked it
Intermediate as it is quite fiddly before you really get into it

Tuning: D,A,D,G
it can be played with the F(fret 1) on E string but it isless confusing in D and sounds 
sounds more like the cd in D

Pre Verse

G--------------------|
D--------------------|
A-333333333333-5-3---|
D-----------------5-3|

Verses and Chorus
G---------------------------------------------|
D---------------------------------------------|
A-3-3-3-5-3-5-----------5-5-5-3-5-3-----------|
D------------5-5-5-3-5-3-----------3-3-3-5-3-5|

Bridge                     With No Heart in the Middle part
G--------------------|    |-----------------------------------|
D--------------------|    |-----------------------------------|
A—-3-3-3-3-3-5-3---X3|    |-5-5-5-5-5-5-5-5-5-5-5-5-5-5-7-5---|
D-3---3---------5-3--|    |--------------------------------7-5|
Suggest correction
Give kudos to tab author, rate the tab!
1 2 3 4 5
comments
print report bad tab
guest
You may want to rate the tab now too:
select rating
Wanna post a correction for this tab? Suggest correction