Oops, an error
Loading. Please wait.

Beautiful Occupation Bass Tab

1,306 views 6 this week
no commentswrite comment
1 2 3 4 5
3 more votes to show rating
add to favorites
launch autoscroll
font size
0
reset
guitar tuner
Autoscroll
slow
fast
+/-
esc
set tempo
stop
Help us to improve Ultimate-Guitar.com Take our survey!
×
Author
Difficulty
novice
----------------------------------------------------------------------------------
			            Beautiful Occupation - Travis
----------------------------------------------------------------------------------

Tabbed By : Demetri Stoufflet
e-mail: emetriday@yahoo.com

Tuning: E, A, D, G

Intro 
G|--------------------------------------------------------------------|\  / 2222
D|----4-4--4--2-2--2--4-4--4------------------------------------------| \/     2
A|----------------------------4-4--4--2-2--2----------2-2--2----------| /\  2222
E|--------------------------------------------2-2--2----------2-2--2--|/  \ 2

"Don't just stand there watching it happening..."
G|-----------------------------------------|\  / 2222 Second Time   E|------|
D|--4-4--4-4--4-4--4-4---------------------| \/     2 Through enter A|------|
A|----------------------2-2--2-2--2-2--2-2-| /\  2222 Next Verse    D|-2/---|
E|-----------------------------------------|/  \ 2    with slide    G|------|
                                                 2222
               "Then read it in the headlines..."
G|----------------------------------------------------------------------------------|\  / 2222
D|----------------------------------------------------------------------------------| \/     2 
A|--5-5--4-4--------------------------------5-5--4-4-----------------------2-2-2/4--| /\  2222
E|------------7-7--5-5----2-2-2-2-2-2-2-2--------------7-7--5-5---2-2-2-2-----------|/  \ 2   
                                                                                          2222

                    "For The Beautiful Occupation..."
G|---------------------------------------------------------------------------|
D|---------------------------------------------------------------------------|
A|---7~~~~~~~~~~~~~~~~~5~~~~~~~~~~~~~~~~~7~~~~~~~~~~~~~~~~~5~~~~~~~~~~~~~~~~~|
E|---------------------------------------------------------------------------|

                            "I'm too cynical..."
G|-------------------------------------------------------------------------------|
D|---4-4---4-4---4-4-4---------------------4-4---4-4---4-4-4---------------------|
A|----------------------2-2---2-2---2-2-2---------------------2-2---2-2---2-2-2/4|
E|-------------------------------------------------------------------------------|

                      
                        "Then read it in the headlines..."
G|----------------------------------------------------------------------------------|\  / 2222
D|----------------------------------------------------------------------------------| \/     2 
A|--5-5--4-4--------------------------------5-5--4-4-----------------------2-2-2/4--| /\  2222
E|------------7-7--5-5----2-2-2-2-2-2-2-2--------------7-7--5-5---2-2-2-2-----------|/  \ 2   
                                                                                          2222

                    "For The Beautiful Occupation..."
G|---------------------------------------------------------------------------|
D|---------------------------------------------------------------------------|
A|---7~~~~~~~~~~~~~~~~~5~~~~~~~~~~~~~~~~~7~~~~~~~~~~~~~~~~~5~~~~~~~~~~~~~~~~~|
E|---------------------------------------------------------------------------|

                                             SOLO
G|--------------------------------------------------------------------------------------------|
D|----4-4---4-4---4-4---4-4-------------------------------------------------------------------| 
A|--4-----4-----4-----4-------2-2---2-2---2-2---2-2---0-0---0-0---0-0---2-2---2-2---2-2---2-2-|
E|--------------------------2-----2-----2-----2-----0-----0-----0-----2-----2-----2-----2-----| x2
  "Have a Nice Day"
G|-----------------|
D|-----------------|
A|--2-2--2-2-2/4---|
E|-----------------|

                        "Then read it in the headlines..."
G|----------------------------------------------------------------------------------|\  / 2222
D|----------------------------------------------------------------------------------| \/     2 
A|--5-5--4-4--------------------------------5-5--4-4-----------------------2-2-2/4--| /\  2222
E|------------7-7--5-5----2-2-2-2-2-2-2-2--------------7-7--5-5---2-2-2-2-----------|/  \ 2   
                                                                                          2222

                    "For The Beautiful Occupation..."
G|---------------------------------------------------------------------------|\  / 2222
D|---------------------------------------------------------------------------| \/     2
A|---7~~~~~~~~~~~~~~~~~5~~~~~~~~~~~~~~~~~7~~~~~~~~~~~~~~~~~5~~~~~~~~~~~~~~~~~| /\  2222
E|---------------------------------------------------------------------------|/  \ 2  
                                                                                   2222
Outro

G|-----------------|
D|--4~-------------|
A|------4~--5~~~~--|
E|-----------------|


| /  slide up
| \  slide down
| h  hammer-on
| p  pull-off
| ~  let note ring
| +  harmonic
| x  Mute note
===============================================================================
Suggest correction
Give kudos to tab author, rate the tab!
1 2 3 4 5
comments
print report bad tab
guest
You may want to rate the tab now too:
select rating
Wanna post a correction for this tab? Suggest correction