Oops, an error
Loading. Please wait.

Big Chair Bass Tab

1,844 views 1 this week
no commentswrite comment
1 2 3 4 5
please rate
add to favorites
launch autoscroll
font size
0
reset
guitar tuner
Autoscroll
slow
fast
+/-
esc
set tempo
stop
Help us to improve Ultimate-Guitar.com Take our survey!
×
Author
Difficulty
novice
-------------------------------------------------------------------------------
			     Big Chair - Travis
-------------------------------------------------------------------------------

Tabbed By : Boomer79
e-mail: boomer@coppersails.com

Tuning: Standard

Listen for the rhythm, it repeats the entire song, regardless of part.  If you are a 
due to speed, it may be easier for you to play with a pick, playing the A-string on the 
and the D-string on the downstroke.

Just listen to the song in order to figure out when each of the 3 different bass lines 
happen.

The intro, verse, chorus and outro use the following riff, repeating:
G|-----------------|-----------------|-----------------|-----------------|
D|--11-11-11-11-11-|--11-11-11-11-11-|---7--7--7--7--7-|---7--7--7--7--7-|
A|9---9--9--9--9---|0---0--0--0--0---|5---5--5--5--5---|5---5--5--5--5---|
E|-----------------|-----------------|-----------------|-----------------|

Prechorus x2
G|-----------------|-----------------|-----------------|-----------------|
D|---9--9--9--9--9-|---9--9--9--9--9-|---7--7--7--7--7-|---7--7--7--7--7-|
A|7---7--7--7--7---|7---7--7--7--7---|5---5--5--5--5---|5---5--5--5--5---|
E|-----------------|-----------------|-----------------|-----------------|

Interlude (this happens only once in the song, right after the 2nd chorus)
G|-----------------|-----------------|-----------------|-----------------|
D|--10-10-10-10-10-|--10-10-10-10-10-|--14-14-14-14-14-|--14-14-14-14-14-|
A|8---8--8--8--8---|8---8--8--8--8---|12--12-12-12-12--|12--12-12-12-12--|
E|-----------------|-----------------|-----------------|-----------------|

G|-----------------|-----------------|-----------------|-----------------|
D|--10-10-10-10-10-|--10-10-10-10-10-|---9--9--9--9--9-|---9--9--9--9--9-|
A|8---8--8--8--8---|8---8--8--8--8---|7---7--7--7--7---|7---7--7--7--7---|
E|-----------------|-----------------|-----------------|-----------------|
Suggest correction
Give kudos to tab author, rate the tab!
1 2 3 4 5
comments
print report bad tab
guest
You may want to rate the tab now too:
select rating
Wanna post a correction for this tab? Suggest correction