Oops, an error
Loading. Please wait.

Closer Bass Tab

version 1
version 1

Whole song

Interactive

3,149 views 3 this week
no commentswrite comment
1 2 3 4 5
please rate
add to favorites
launch autoscroll
font size
0
reset
guitar tuner
Autoscroll
slow
fast
+/-
esc
set tempo
stop
Help us to improve Ultimate-Guitar.com Take our survey!
×
Well This Is My First Tab I've thirteen please dont kill me.
The song Is Very Simple. Play With Fingers

Intro
G|--------------|
D|--------------|
A|-3~--0~-------|
E|--------1~--5~|

Verse
G|-------------------------------------------------------------------|
D|-------------------------------------------------------------------|
A|-3-3-3-3-3-3-3-3-0-0-0-0-0-0-0-0-----------------------------------|X2
E|--------------------------------1-1-1-1-1-1-1-1-5-5-5-5-5-5-5-5-66-|

Pre-Chorus
G|-------------------------------------------------|
D|-------------------------------------------------|
A|-33333333--------3333333--------3333333333333333-|
E|---------11111111-------11111111-----------------|

Chorus
G|------------------------------------|
D|------------------------------------|
A|-55555555-00000000------------------|X2
E|------------------44444444-66666666-|

Versex2
Pre-Chorus
Chorusx2

Break: Same at Chorus but x16
Pre-Chorus
Chorusx2
Breakx4


And That's All
Thanks.
Suggest correction
Give kudos to tab author, rate the tab!
1 2 3 4 5
comments
print report bad tab
guest
You may want to rate the tab now too:
select rating
Please do not post tabs as comments. Select "correction" instead!