Oops, an error
Loading. Please wait.

Closer Chords

version 3
version 3

Whole song

Interactive

3,741 views 3 this week
no commentswrite comment
1 2 3 4 5
please rate
add to favorites
launch autoscroll
font size
0
reset
transpose
0
reset
simplify chords
display chords
guitar tuner
Tab Pro tools
  • play this tab
  • loop segment
  • change instrument
  • show fretboard
  • metronome
×
Best way to learn
"Closer"
Autoscroll
slow
fast
+/-
esc
set tempo
stop
Contributor
Capo
3rd fret
Artist: Travis
Song: Closer  

Tuning: Standard (Capo on 3rd fret)

Chords Used:
A     - x02220
A*    - x02222
D     - xx0232
Dsus2 - xx0230
Bm    - x24432 Or 224432
G     - 320033 Or 320003

Song:
Intro\Verse: D-Dsus2  A*-A  Bm  G

Pre Chorus: A D A D A

Chorus: D A Bm G-A

Instrumental: D-Dsus2 A*-A Bm G

Outro:D-Dsus2 A*-A Bm G

================================================
Chords Strum Procedure:

Intro/Verse/Instrumental/Outro:

D-Dsus2
E|--2--2--2--2--2--2--2--2--2--2--2--2--2--0--0--0--|
B|--3--3--3--3--3--3--3--3--3--3--3--3--3--3--3--3--|
G|--2--2--2--2--2--2--2--2--2--2--2--2--2--2--2--2--|
D|--0--0--0--0--0--0--0--0--0--0--0--0--0--0--0--0--|
A|--------------------------------------------------|
E|--------------------------------------------------|

A*-A
E|--2--2--2--2--2--2--2--2--2--2--2--2--2--0--0--0--|
B|--2--2--2--2--2--2--2--2--2--2--2--2--2--2--2--2--|
G|--2--2--2--2--2--2--2--2--2--2--2--2--2--2--2--2--|
D|--2--2--2--2--2--2--2--2--2--2--2--2--2--2--2--2--|
A|--0--0--0--0--0--0--0--0--0--0--0--0--0--0--0--0--|
E|--------------------------------------------------|

Bm
E|--2--2--2--2--2--2--2--2--2--2--2--2--2--2--2--2--|
B|--3--3--3--3--3--3--3--3--3--3--3--3--3--3--3--3--|
G|--4--4--4--4--4--4--4--4--4--4--4--4--4--4--4--4--|
D|--4--4--4--4--4--4--4--4--4--4--4--4--4--4--4--4--|
A|--2--2--2--2--2--2--2--2--2--2--2--2--2--2--2--2--|
E|--------------------------------------------------|

G
E|--3--3--3--3--3--3--3--3--3--3--3--3--3--3--3--3--|
B|--3--3--3--3--3--3--3--3--3--3--3--3--3--3--3--3--|
G|--0--0--0--0--0--0--0--0--0--0--0--0--0--0--0--0--|
D|--0--0--0--0--0--0--0--0--0--0--0--0--0--0--0--0--|
A|--2--2--2--2--2--2--2--2--2--2--2--2--2--2--2--2--|
E|--3--3--3--3--3--3--3--3--3--3--3--3--3--3--3--3--|

Pre Chorus:

A
E|--0--0--0--0--0--0--0--0--| \
B|--2--2--2--2--2--2--2--2--|  \
G|--2--2--2--2--2--2--2--2--|   \
D|--2--2--2--2--2--2--2--2--|   |
A|--0--0--0--0--0--0--0--0--|   |
E|--------------------------|   | 
                                | x 2 
D                               |
E|--2--2--2--2--2--2--2--2--|   |
B|--3--3--3--3--3--3--3--3--|   |
G|--2--2--2--2--2--2--2--2--|   |
D|--0--0--0--0--0--0--0--0--|   /
A|--------------------------|  /
E|--------------------------| /
        
A
E|--0--0--0--0--0--0--0--0--| 
B|--2--2--2--2--2--2--2--2--| 
G|--2--2--2--2--2--2--2--2--| 
D|--2--2--2--2--2--2--2--2--| 
A|--0--0--0--0--0--0--0--0--| 
E|--------------------------|

Chorus:

D                               
E|--2--2--2--2--2--2--2--2--|   
B|--3--3--3--3--3--3--3--3--|  
G|--2--2--2--2--2--2--2--2--|   
D|--0--0--0--0--0--0--0--0--|   
A|--------------------------| 
E|--------------------------| 

A
E|--0--0--0--0--0--0--0--0--| 
B|--2--2--2--2--2--2--2--2--|  
G|--2--2--2--2--2--2--2--2--|   
D|--2--2--2--2--2--2--2--2--|   
A|--0--0--0--0--0--0--0--0--|   
E|--------------------------|

Bm
E|--2--2--2--2--2--2--2--2--|
B|--3--3--3--3--3--3--3--3--|
G|--4--4--4--4--4--4--4--4--|
D|--4--4--4--4--4--4--4--4--|
A|--2--2--2--2--2--2--2--2--|
E|--------------------------|

G-A
E|--3--3--3--3--0--0--0--0--|
B|--3--3--3--3--2--2--2--2--|
G|--0--0--0--0--2--2--2--2--|
D|--0--0--0--0--2--2--2--2--|
A|--2--2--2--2--0--0--0--0--|
E|--3--3--3--3--------------|

================================================
Lyrics
Verse 1:
I've had enough, of this parade.
I'm thinking of, the words to say.
We open up, unfinished parts,
Broken up, its so mellow.

Pre chorus:
And when I see you then I know it will be next to me
And when I need you then I know you will be there with me
Ill never leave you...

Chorus:
Just need to get closer, closer,
Lean on me now,
Lean on me now,
closer, closer,
Lean on me now,
Lean on me now.

Verse 2:
Keep waking up (waking up), without you here (without you here).
Another day (another day), another year (another year).
I seek the truth (seek the truth), we set apart (we set apart)
Thinking of a second chance (a second chance).

Pre chorus:
And when I see you then I know it will be next to me
And when I need you then I know you will be there with me
Ill never leave you...

Chorus:
Just need to get closer, closer,
Lean on me now,
Lean on me now,
closer, closer,
Lean on me now,
Lean on me now.

Pre chorus:
And when I see you then I know it will be next to me
And when I need you then I know you will be there with me
Ill never leave you...

Chorus:
Just need to get closer, closer,
Lean on me now,
Lean on me now,
closer, closer,
Lean on me now,
Lean on me now.
Closer, Closer
Closer, closer

This is my first tab, so please rate.
comments
We did not receive enough feedback on this tab! Please rate:
print report bad tab
1 2 3 4 5
I want to post or [tab]
guest
You may want to rate the tab now too:
select rating
Please do not post tabs as comments. Select "correction" instead!