Oops, an error
Loading. Please wait.

Driftwood bass

version 1
version 1

Whole song

Interactive

by Travis
226 views 1 this week
no commentswrite comment
1 2 3 4 5
x 4
add to favorites
×
Save as Personal and add changes to this tab that will be seen only by you. Learn more ›
×
You can save this tab as Personal to edit and correct it or add notes. All changes will be seen only by you. Learn more »
launch autoscroll
font size
0
reset
guitar tuner
edit
Autoscroll
slow
fast
+/-
esc
set tempo
stop
Author
Difficulty
--------------------------------------------------------------------------
                            Artist - Travis
                          *******************
                           Song - Driftwood   
                          ******************
                       Album - The Man Who (1999)
                      ****************************
                          Tabbed By - Ayreon77
                         **********************
--------------------------------------------------------------------------
Tuning = Standard             



INTRO
******
G|----------------|--------------------------------|
D|----------------|--------------------------------|
A|----------------|--s-----------------------------|
E|-7--7--5-7--5-7-|-5\-12--12--10-12--10-12--12-12-|


----------------------------
00:11
VERSE 1
********
Everything is open, nothing is set in stone.  Rivers turn to oceans, oceans tide you home
G|----------|---------|----------|----------|----------|---------|----------|----------|
D|----------|---------|----------|----------|----------|---------|----------|----------|
A|-10-12-12-|---------|----------|----------|-10-12-12-|---------|----------|----------|
E|----------|-8-10-10-|-10-12-12-|-10-12-12-|----------|-8-10-10-|-10-12-12-|-10-12-12-|

Home is where the heart is, but your heart. Drifting over bridges never to return
G|----------|---------|----------|----------|----------|---------|----------|----------|
D|----------|---------|----------|----------|----------|---------|----------|----------|
A|-10-12-12-|---------|----------|----------|-10-12-12-|---------|----------|----------|
E|----------|-8-10-10-|-10-12-12-|-10-12-12-|----------|-8-10-10-|-10-12-12-|-10-12-12-|

Watching bridges burn
G|----------------------------|
D|----------------------------|
A|----------------------------|
E|-10-12-12-12-12-12-12-12-12-|


----------------------------
00:36
CHORUS
*******
You’re driftwood floating underwater Breaking into pieces, pieces, pieces
G|------|--------|-------|--------------------|-----------|----------|-----------|-------|
D|------|--------|-------|--------------------|-----------|----------|-----------|-------|
A|------|---7--7-|-------|--------------------|-----------|----------|-----------|-------|
E|-5--5-|-5------|-7-7-7-|-5-7-7--9-9--10--10-|-9-10-9-10-|-9-10--10-|-9-10-9-10-|-12-12-|

Just driftwood, hollow and of no use  Waterfalls will find you, bind you, grind you
G|------|--------|-------|--------------------|-----------|----------|-----------|-------|
D|------|--------|-------|--------------------|-----------|----------|-----------|-------|
A|------|---7--7-|-------|--------------------|-----------|----------|-----------|-------|
E|-5--5-|-5------|-7-7-7-|-5-7-7--9-9--10--10-|-9-10-9-10-|-9-10--10-|-9-10-9-10-|-12-12-|


----------------------------
00:58
VERSE 2
********
Nobody is an island, everyone has to go.     Pillars turn to butter, butterflying low
G|----------|---------|----------|----------|----------|---------|----------|----------|
D|----------|---------|----------|----------|----------|---------|----------|----------|
A|-10-12-12-|---------|----------|----------|-10-12-12-|---------|----------|----------|
E|----------|-8-10-10-|-10-12-12-|-10-12-12-|----------|-8-10-10-|-10-12-12-|-10-12-12-|

Low is where your heart is but your heart has to grow. Drifting under bridges, never with the flow
G|----------|---------|----------|----------|----------|---------|----------|
D|----------|---------|----------|----------|----------|---------|----------|
A|-10-12-12-|---------|----------|----------|-10-12-12-|---------|----------|
E|----------|-8-10-10-|-10-12-12-|-10-12-12-|----------|-8-10-10-|-10-12-12-|


----------------------------
01:19
BRIDGE
*******
And you really didn’t think it would happen  But it really is the end of the line
G|------------------|----------|---------|-------|-------------|---------|-------|
D|------------------|----------|---------|-------|-------------|---------|-------|
A|------------------|----------|-7-7---7-|---7---|-------------|-7-7---7-|---7---|
E|-10-12--12-10-9-7-|-5-7--5-7-|-----7---|-7---7-|-7--5-7--5-7-|-----7---|-7---7-|


----------------------------
01:32
CHORUS
*******
So I’m sorry that you’ve turned to driftwood. But you’ve been drifting for a    long, long time
G|------|--------|---------|--------------------|-----------|--------|--------------|
D|------|--------|---------|--------------------|-----------|--------|--------------|
A|------|---7--7-|-5-------|--------------------|-----------|--------|--------------|
E|-5--5-|-5------|---7-7-7-|-5-7-7--9-9--10--10-|-9-10-9-10-|-9-5--5-|-0-5-0-5--0-5-|


----------------------------
01:48
SOLO
*****
G|---------------|---------------|---------------|---------------|----------------------|---------|---------|
D|---------------|---------------|---------------|---------------|----------------------|---------|---------|
A|---------------|-7----7----7---|---------------|-7----7----7---|----------------------|---------|---------|
E|-7--5-7--5-7-5-|----7----7---7-|-7--5-7--5-7-5-|----7----7---7-|-7--7-7-5-7--7-7-5-7--|-7-7-7-7-|-7-7-7-7-|


----------------------------
02:05
VERSE 3
********
Everywhere there’s trouble, nowhere’s safe to go. Pushes turn to shovels, shovelling the snow
G|----------|---------|----------|----------|----------|---------|----------|----------|
D|----------|---------|----------|----------|----------|---------|----------|----------|
A|-10-12-12-|---------|----------|----------|-10-12-12-|---------|----------|----------|
E|----------|-8-10-10-|-10-12-12-|-10-12-12-|----------|-8-10-10-|-10-12-12-|-10-12-12-|

Frozen you have chosen the path you wish to go. Drifting now forever and forever more
G|----------|---------|----------|----------|----------|---------|----------|----------|
D|----------|---------|----------|----------|----------|---------|----------|----------|
A|-10-12-12-|---------|----------|----------|-10-12-12-|---------|----------|----------|
E|----------|-8-10-10-|-10-12-12-|-10-12-12-|----------|-8-10-10-|-10-12-12-|-10-12-12-|

Until you reach your shore
G|----------------------------|
D|----------------------------|
A|----------------------------|
E|-10-12-12-12-12-12-12-12-12-|


----------------------------
02:30
CHORUS
*******
You’re driftwood floating underwater Breaking into pieces, pieces, pieces
G|------|--------|-------|--------------------|-----------|----------|-----------|-------|
D|------|--------|-------|--------------------|-----------|----------|-----------|-------|
A|------|---7--7-|-------|--------------------|-----------|----------|-----------|-------|
E|-5--5-|-5------|-7-7-7-|-5-7-7--9-9--10--10-|-9-10-9-10-|-9-10--10-|-9-10-9-10-|-12-12-|

Just driftwood, hollow and of no use  Waterfalls will find you, bind you, grind you
G|------|--------|-------|--------------------|-----------|----------|-----------|------|
D|------|--------|-------|--------------------|-----------|----------|-----------|------|
A|------|---7--7-|-------|--------------------|-----------|----------|-----------|------|
E|-5--5-|-5------|-7-7-7-|-5-7-7--9-9--10--10-|-9-10-9-10-|-9-10--10-|-9-10-9-10-|-10-9-|


----------------------------
02:52
BRIDGE
*******
And you really didn’t think it would happen. But it really is the end of the line
G|---------------|---------------|---------------|---------------|
D|---------------|---------------|---------------|---------------|
A|---------------|-7----7----7---|---------------|-7----7----7---|
E|-7--5-7--5-7-5-|----7----7---7-|-7--5-7--5-7-5-|----7----7---7-|


----------------------------
03:03
CHORUS
*******
So I’m sorry that you’ve turned to driftwood. But you’ve been drifting for a    long, long time
G|------|--------|---------|--------------------|-----------|-----------|---------|
D|------|--------|---------|--------------------|-----------|-----------|---------|
A|------|---7--7-|-5-------|--------------------|-----------|-----------|---------|
E|-5--5-|-5------|---7-7-7-|-5-7-7--9-9--10--10-|-9-10-9-10-|-10-9-5--5-|-0-5-0-5-|

you’ve been drifting for a long, long time. you’ve been drifting long, long, drifting for a long, long time.
G|----------|---------|--------|---------|--------|---------|------------|-----------|--------|
D|----------|---------|--------|---------|--------|---------|------------|-----------|--------|
A|----------|---------|--------|---------|--------|---------|------------|-----------|--------|
E|-0-5-7--7-|-5-7-5-7-|-7-5--5-|-0-5-0-5-|-5-7--7-|-5-7-5-7-|-7-9-10--10-|-9-10-9-10-|-10-9-5-|



ENJOY...........

            
            
Suggest correction
Creating personal tab
Creating personal tab
You can edit any tab online and save it as your Personal.

You can edit, replace or remove any tab part or add personal notes – all changes will be seen only by you.

Personal tabs can be accessed anytime from any device, even offline.
Learn more »
comments
print report bad tab
guest
You may want to rate the tab now too:
select rating
Wanna post a correction for this tab? Suggest correction