Oops, an error
Loading. Please wait.

Eyes Wide Open Bass Tab

802 views 1 this week
no commentswrite comment
1 2 3 4 5
please rate
add to favorites
launch autoscroll
font size
0
reset
guitar tuner
Autoscroll
slow
fast
+/-
esc
set tempo
stop
Help us to improve Ultimate-Guitar.com Take our survey!
×
Travis
Eyes Wide Open

Tabbed By: Cameron Forbes

Tuning: Dropped D

The Song is played in E I think
But it sounds better in D in my opinion
i have tabbed in both D and E

Verses
G|------------------------------|
D|------------------5h7-5-------|
A|-----------------------7-5-0--| 8 Times
D|-3h5-0-3h5-0-3h5-0------------|

Chorus (I Cant stop crying-Eyes Wide open)
G|------------------|
D|------------------|
A|------------------|
D|-3h5-0-3h5-0-3h5-0|

Through the whole song

In E

Verses
G|------------------------------|
D|------------------5h7-5-------|
A|-----------------------7-5-0--| 8 Times
E|-5h7-0-5h7-0-5h7-0------------|

Chorus (I Cant stop crying-Eyes Wide open)
G|------------------|
D|------------------|
A|------------------|
E|-5h7-0-5h7-0-5h7-0|
Suggest correction
Give kudos to tab author, rate the tab!
1 2 3 4 5
comments
print report bad tab
guest
You may want to rate the tab now too:
select rating
Wanna post a correction for this tab? Suggest correction