Oops, an error
Loading. Please wait.

Flowers In The Window bass

version 1
version 1

Whole song

Interactive

by Travis
250 views 6 this week
1 commentread comment
1 2 3 4 5
1 last vote to show rating
add to favorites
×
Save as Personal and add changes to this tab that will be seen only by you. Learn more ›
×
You can save this tab as Personal to edit and correct it or add notes. All changes will be seen only by you. Learn more »
launch autoscroll
font size
0
reset
guitar tuner
edit
Autoscroll
slow
fast
+/-
esc
set tempo
stop
Author
--------------------------------------------------------------------------
                            Artist - Travis
                          *******************
                      Song - Flowers In The Window   
                     ******************************
                    Album - The Invisible Band (2001)
                   ***********************************
                          Tabbed By - Ayreon77
                         **********************
--------------------------------------------------------------------------
Tuning = Standard             




INTRO
******
G|--s--------------------------s----|------------------------|
D|-4\-10---9-9--9--7----5-5---5\-12-|-10-9-7---10------12----|
A|----------------------------------|--------8----8-10----10-|
E|----------------------------------|------------------------|


G|--------------------------s----|---------------------|
D|-10---9-9--9--7----5-5---5\-12-|-10-9-7---10------12-|
A|-------------------------------|--------8----8-10----|
E|-------------------------------|---------------------|


--------------------------
00:22
VERSE 1
********
  When I first held you I was cold,  A melting snowman I was told
G|---------------------------------|---------------------------|
D|---------------------------------|-------------------------7-|
A|-10-------------------------8----|-10------------------------|
E|---------------------------------|---------------------------|

  But there was no one there to hold  Before I swore, that I would be alone forever more
G|----------------------------------|----------------------------------------------|
D|----------------------------------|--------------------------------------------s-|
A|-10---------------------------8---|---8------------------10------------------10\-|
E|----------------------------------|----------------------------------------------|


--------------------------
00:42
CHORUS
******* 
  Wow, look at you now, Flowers in the window, It´s such a lovely day, And I'm glad you feel the same,
G|--------------------------s----|------------------------|
D|-10---9-9--9--7----5-5---5\-12-|-10-9-7---10------12----|
A|-------------------------------|--------8----8-10----10-|
E|-------------------------------|------------------------|

cos they stand up, I'm in the crowd, You are one in a million and I love you so, Let´s watch the flowers grow 
G|--------------------------s----|---------------------|
D|-10---9-9--9--7----5-5---5\-12-|-10-9-7---10------12-|
A|-------------------------------|--------8----8-10----|
E|-------------------------------|---------------------|


--------------------------
01:02
VERSE 2
********
  There is no reason to feel bad, But there are many seasons to feel bad, sad, and mad
G|-------------------------------|-------------------------------------------------9------|
D|-------------------------------|-----------------------------------7----10-----------10-|
A|-10------------------------8---|----10--------------------------------------------------|
E|----------------------8--------|-8----------------------------8-------------------------|

  It´s just a bunch of feelings that we've had,  To hope that I am here to help you with the load 
G|---------------------------------------------|--------------------------------------|
D|---------------------------------------------|--------------------------------------|
A|-----10----------------------------------8---|----8--------------10---------------8-|
E|-----------------------------------8---------|-8--------------10--------------------|


--------------------------
01:22
CHORUS
******* 
  Wow, look at you now, Flowers in the window, It´s such a lovely day, And I'm glad you feel the same,
G|--------------------------s----|------------------------|
D|-10---9-9--9--7----5-5---5\-12-|-10-9-7---10------12----|
A|-------------------------------|--------8----8-10----10-|
E|-------------------------------|------------------------|

cos they stand up, I'm in the crowd, You are one in a million and I love you so, Let´s watch the flowers grow 
G|--------------------------s----|------------------------|
D|-10---9-9--9--7----5-5---5\-12-|-10-9-7---10------12----|
A|-------------------------------|--------8----8-10----10-|
E|-------------------------------|------------------------|

01:41
  laa laa la laa laa Am  la laa laa la  laa laa la la  la la laaa  laa la la    laaa
G|--------------------------s----|------------------------|
D|-10---9-9--9--7----5-5---5\-12-|-10-9-7---10------12----|
A|-------------------------------|--------8----8-10----10-|
E|-------------------------------|------------------------|

  laa laa la laa laa Am  la laa laa la  laa laa la la  la la laaa  laa la la    laaa
G|--------------------------s----|------------------------|
D|-10---9-9--9--7----5-5---5\-12-|-10-9-7---10------12----|
A|-------------------------------|--------8----8-10----10-|
E|-------------------------------|------------------------|


--------------------------
02:01
VERSE 3
********
So now we're here and now is fine
So far away from there and there is time, time, time
G|----------------------------------------------9-------|
D|----------------------------------7-----10---------10-|
A|------------------------------------------------------|
E|------------------------------------------------------|

  To plant new seeds and watch them grow,  So there'll be flowers in the window when we go
G|---------------------------------------|---------------------------------------------|
D|---------------------------------------|---------------------------------------------|
A|-10-------------------------------8----|----8--------------------10----------------8-|
E|-----------------------8---------------|-8-------------------10----------------------|


--------------------------
02:21
CHORUS
******* 
  Wow, look at you now, Flowers in the window, It´s such a lovely day, And I'm glad you feel the same,
G|--------------------------s----|------------------------|
D|-10---9-9--9--7----5-5---5\-12-|-10-9-7---10------12----|
A|-------------------------------|--------8----8-10----10-|
E|-------------------------------|------------------------|

cos they stand up, I'm in the crowd, You are one in a million and I love you so, Let´s watch the flowers grow 
G|--------------------------s----|------------------------|
D|-10---9-9--9--7----5-5---5\-12-|-10-9-7---10------12----|
A|-------------------------------|--------8----8-10----10-|
E|-------------------------------|------------------------|


  Wow, look at you now, Flowers in the window, It´s such a lovely day, And I'm glad you feel the same,
G|--------------------------s----|------------------------|
D|-10---9-9--9--7----5-5---5\-12-|-10-9-7---10------12----|
A|-------------------------------|--------8----8-10----10-|
E|-------------------------------|------------------------|

  cos they stand up, I'm in the crowd, You are one in a million and I love you so, Let´s watch the flowers 
G|--------------------------s----------------------------------------------------|-----------------|
D|-10---9-9--9--7----5-5---5\-12------12------12------12-------------------------|-----------------|
A|-------------------------------------------------------------------------------|-8----8----8---8-|
E|-------------------------------------------------------------------------------|-----------------|

   grooooooooooow Whoe   oooooooooooooo
G|--------------------------s----|------------------------|
D|-10---9-9--9--7----5-5---5\-12-|-10-9-7---10------12----|
A|-------------------------------|--------8----8-10----10-|
E|-------------------------------|------------------------|

   Ohhhhhhhhhhhhhhhhhhhhhhhh    Let´s watch the flowers
G|--------------------------s----|--------------|
D|-10---9-9--9--7----5-5---5\-12-|-10-9-7-------|
A|-------------------------------|--------8-----|
E|-------------------------------|--------------|



ENJOY.........

            
            
Suggest correction
Creating personal tab
Creating personal tab
You can edit any tab online and save it as your Personal.

You can edit, replace or remove any tab part or add personal notes – all changes will be seen only by you.

Personal tabs can be accessed anytime from any device, even offline.
Learn more »
Give kudos to tab author, rate the tab!
1 2 3 4 5
comments
print report bad tab
1 comment total.
0 reply
bass50611 12,675 Jul 27, 2017 06:10 AM

Good Tab Mate

guest
You may want to rate the tab now too:
select rating
Wanna post a correction for this tab? Suggest correction