Oops, an error
Loading. Please wait.

Flowers In The Window Tab

version 1
version 1

Whole song

Interactive

by Travis
67,150 views 21 this week
3 commentsread comments
1 2 3 4 5
x 18
add to favorites
launch autoscroll
font size
0
reset
how to read this tab
guitar tuner
Autoscroll
slow
fast
+/-
esc
set tempo
stop
(Gtr 1 is an acoustic guitar which plays the chords(below) nad Gtr 2 is an electric which plays some lead 
the verses
and middle section.)

[Chords]
   C C/B Am D7 Fm  G  F
e|E-0--0--0---2--1--3-----|
B|-1--1--1---1--1--3--1--|
G|-0--0--2---2--1--0--2--|
D|-2-----2---0--3--0--3--|
A|-3--2--0------3--2--3--|
E|-3---------------3-----|

[Intro]
C  C/B  Am       D7  Fm  G
C  C/B  Am       D7  Fm  G

[Verse 1]
G                          F
When I first met you I was cold
G                      Am
A melting snowman I was told
G                             F
But there was no one there to hold
                         G
Before I swore, that I would be alone forever more

[Chorus]
C    C/B
Wow, look at you now,
Am
Flowers in the window
            D7
Its such a lovely day
        Fm                 G                     C
And I'm glad you feel the same, 'cos they stand up
C/B
I'm in the crowd
Am                              D7
You are one in a million and I love you so,
     Fm                 G
Lets watch the flowers grow

[Verse 2]
(Gtr 2)
          G                            F                     G                         Am
e|-10----10----10-----10h12p10---8----8-----8-----8-------10----10----10-----10--------5----8----12--12---|
B|--------------------------------------------------------------------------------------------------------|
G|----12----12-----12--------------10----10----10----10------12-----12-----12----12-----------------------|
D|--------------------------------------------------------------------------------------------------------|
A|--------------------------------------------------------------------------------------------------------|
E|--------------------------------------------------------------------------------------------------------|

      G                              F                                                  G
e|-10----10----10-----10h12p10---8----8-----8-----8------8------8-----8-----8------10----10----10----10------|
B|-----------------------------------------------------------------------------------------------------------|
G|----12----12-----12--------------10----10----10----10-----10-----10----10----10-----12----12----12-----12--|
D|-----------------------------------------------------------------------------------------------------------|
A|-----------------------------------------------------------------------------------------------------------|
E|-----------------------------------------------------------------------------------------------------------|

G                          F
There is no reason to feel bad
G                               Am
But there are many seasons to feel bad, sad, now
G                                       F
Its just a bunch of feelings that we've had
                     G
To hope that I am here to help you with the load

[Chorus]
C    C/B
Wow, look at you now,
Am
Flowers in the window
            D7
Its such a lovely day
        Fm                 G                     C
And I'm glad you feel the same, 'cos they stand up
C/B
I'm in the crowd
Am                              D7
You are one in a million and I love you so,
     Fm                 G
Lets watch the flowers grow

(middle)
(Gtr 2) 
(Solo - Chorus melody)
e|--8--8---7-8-7-8---7-8-7-8-10-8-5---5-7--8----8---5-7--8-----8-----10------8--8---7-8-7-8---7-8-7-8-10-8-5-|
B|-----------------------------------------------------------------------------------------------------------|
G|-------------------------------------------10------------10----10------------------------------------------|
D|-----------------------------------------------------------------------------------------------------------|
A|-----------------------------------------------------------------------------------------------------------|
E|-----------------------------------------------------------------------------------------------------------|
(Gtr 1 repeats chorus chords over "la la la.." etc. sung in chorus melody)

[Verse 3]
G                             F
So now we're here and now is fine
G                                   Am
So far away from there and there is time, time, time

 (Gtr 2)
     G                              F                                                  G
e|-10----10----10-----10h12p10---8----8-----8-----8------8------8-----8-----8------10----10----10----10------|
B|-----------------------------------------------------------------------------------------------------------|
G|----12----12-----12--------------10----10----10----10-----10-----10----10----10-----12----12----12-----12--|
D|-----------------------------------------------------------------------------------------------------------|
A|-----------------------------------------------------------------------------------------------------------|
E|-----------------------------------------------------------------------------------------------------------|

G                                    F
To plant these seeds and watch them grow
                        G
So there'll be flowers in the window when we go

[Chorus]
C    C/B
Wow, look at us now,
Am
Flowers in the window
            D7
Its such a lovely day
        Fm                 G                     C
And I'm glad you feel the same, 'cos they stand up
C/B
I'm in the crowd
Am                              D7
You are one in a million and I love you so,
     Fm                 G
Lets watch the flowers grow
C    C/B
Wow, look at you now,
Am
Flowers in the window
            D7
Its such a lovely day
        Fm                 G                     C
And I'm glad you feel the same, 'cos they stand up
C/B
I'm in the crowd
Am                              D7
You are one in a million and I love you so,
     Fm
Lets watch the flowers grow

(Gtr 2)
e|--8--8---7-8-7-8---7-8-7-8-10-8-5---5-7--8----8---5-7--8-----8-----10------8--8---7-8-7-8---7-8-7-8-10-8-5-|
B|-----------------------------------------------------------------------------------------------------------|
G|-------------------------------------------10------------10----10------------------------------------------|
D|-----------------------------------------------------------------------------------------------------------|
A|-----------------------------------------------------------------------------------------------------------|
E|-----------------------------------------------------------------------------------------------------------|

C  C/B  Am       D7  Fm  G
C  C/B  Am       D7
     Fm                     C
Lets watch the flowers....grow


************************************

| h  Hammer-on
| p  Pull-off

************************************
Suggest correction
comments
print report bad tab
3 comments total.
-1 reply
ched60 322 Dec 30, 2005 08:58 PM

sounds alot better with a capo on 2nd fret i think

0 reply
LinusX3 21 May 03, 2006 01:05 PM

This sounds really great in my ears!
Awesome tab!

0 reply
law15 22 Feb 16, 2011 05:34 AM

it sounds just like it funny because i think the chords are very accurate so thats why great tab

guest
You may want to rate the tab now too:
select rating
Wanna post a correction for this tab? Suggest correction