Oops, an error
Loading. Please wait.

Follow The Light bass

version 1
version 1

Whole song

Interactive

by Travis
46 views 1 this week
no commentswrite comment
1 2 3 4 5
2 more votes to show rating
add to favorites
×
Save as Personal and add changes to this tab that will be seen only by you. Learn more ›
×
You can save this tab as Personal to edit and correct it or add notes. All changes will be seen only by you. Learn more »
launch autoscroll
font size
0
reset
guitar tuner
edit
Autoscroll
slow
fast
+/-
esc
set tempo
stop
Author
Difficulty
--------------------------------------------------------------------------
                            Artist - Travis
                          *******************
                        Song - Follow The Light  
                       *************************
                    Album - The Invisible Band (2001)
                   ***********************************
                          Tabbed By - Ayreon77
                         **********************
--------------------------------------------------------------------------
Tuning = Standard             



INTRO
******   
G|--s-------|-------|-----|-----|-----|-------|----|
D|-7\-14-14-|-11-11-|-9-9-|-7-7-|-9-9-|-11-11-|-12-|
A|----------|-------|-----|-----|-----|-------|----|
E|----------|-------|-----|-----|-----|-------|----|

G|-------|-------|-----|-----|-----|-------|----|--------------|
D|-14-14-|-11-11-|-9-9-|-7-7-|-9-9-|-11-11-|-12-|-12-12-11-9-7-|
A|-------|-------|-----|-----|-----|-------|----|--------------|
E|-------|-------|-----|-----|-----|-------|----|--------------|


------------------------
00:17
VERSE 1
********
  Nobody really knows.             where they're supposed to go.
G|--------|--------|--------------|--------|--------|----------------|
D|--------|--------|--------------|--------|--------|---------s-s----|
A|-7-7--7-|-9-9--9-|-5-5--5-5-4---|-7-7--7-|-9-9--9-|-5-5--5-5\7/5-4-|
E|--------|--------|------------7-|--------|--------|----------------|

  Hiding behind a wall.              Afraid that they'll lose it all,
G|--------|--------|----------------|--------|--------|--------------|
D|--------|--------|----------------|--------|--------|-7-7--7-7-9-7-|
A|-7-7--7-|-9-9--9-|-5-5--5-5-7-5-4-|-7-7--7-|-9-9--9-|--------------|
E|--------|--------|----------------|--------|--------|--------------|


------------------------
00:34
CHORUS
*******
But it's alright, just follow the light, and don't be afraid of the dark.
G|--s-------|-------|-----|-----|-----|-------|----|
D|-7\-14-14-|-11-11-|-9-9-|-7-7-|-9-9-|-11-11-|-12-|
A|----------|-------|-----|-----|-----|-------|----|
E|----------|-------|-----|-----|-----|-------|----|

In the moonlight, you'll dance till you fall, and always be here in my heart.
G|-------|-------|-----|-----|-----|-------|----|--------------|
D|-14-14-|-11-11-|-9-9-|-7-7-|-9-9-|-11-11-|-12-|-12-12-11-9-7-|
A|-------|-------|-----|-----|-----|-------|----|--------------|
E|-------|-------|-----|-----|-----|-------|----|--------------|


------------------------
VERSE 2
******** 
00:52                           But  nobody wants to know
G|--------|--------|----------------|--------|--------|----------------|
D|--------|--------|----------------|--------|--------|-7-7--7-7-9-7---|
A|-7-7--7-|-9-9--9-|-5-5--5-5-7-5-4-|-7-7--7-|-9-9--9-|--------------9-|
E|--------|--------|----------------|--------|--------|----------------|

  cos nobody even cares.              Everyone's on the make, Ahhhhhh
G|--------|--------|----------------|--------|--------|----------------|
D|--------|--------|----------------|--------|--------|-7-7--7-7-9-7---|
A|-7-7--7-|-9-9--9-|-5-5--5-5-7-5-4-|-7-7--7-|-9-9--9-|--------------9-|
E|--------|--------|----------------|--------|--------|----------------|

  and everyone's out for themselves. Me I'am on the longest road.
G|--------|--------|----------------|--------|--------|----------------|
D|--------|--------|---------s-s----|--------|--------|----------------|
A|-7-7--7-|-9-9--9-|-5-5--5-5\7/5-4-|-7-7--7-|-9-9--9-|-5-5--5-5-7-5-4-|
E|--------|--------|----------------|--------|--------|----------------|

  Where everything's overload.       But I've got my heart and soul,
G|--------|--------|----------------|--------|--------|----------------|
D|--------|--------|-7-7--7-7-9-7---|--------|--------|----------------|
A|-7-7--7-|-9-9--9-|--------------9-|-7-7--7-|-9-9--9-|-5-5--5-5-7-5-4-|
E|--------|--------|----------------|--------|--------|----------------|

  so don't throw me overboard
G|--------|--------|--------------|
D|--------|--------|-7-7--7-7-9-7-|
A|-7-7--7-|-9-9--9-|--------------|
E|--------|--------|--------------|


------------------------
01:30
CHORUS
*******
But it's alright, just follow the light, and don't be afraid of the dark.
G|--s-------|-------|-----|-----|-----|-------|----|
D|-7\-14-14-|-11-11-|-9-9-|-7-7-|-9-9-|-11-11-|-12-|
A|----------|-------|-----|-----|-----|-------|----|
E|----------|-------|-----|-----|-----|-------|----|

In the moonlight, you'll dance till you fall, and always be here in my heart.
G|-------|-------|-----|-----|-----|-------|----|--------------|
D|-14-14-|-11-11-|-9-9-|-7-7-|-9-9-|-11-11-|-12-|-12-12-11-9-7-|
A|-------|-------|-----|-----|-----|-------|----|--------------|
E|-------|-------|-----|-----|-----|-------|----|--------------|


------------------------
01:48
SOLO
*****
G|--------|--------|----------------|--------|--------|----------------|
D|--------|--------|-7-7--7-7-9-7---|--------|--------|-7-7--7-7-9-7---|
A|-7-7--7-|-9-9--9-|--------------9-|-7-7--7-|-9-9--9-|--------------9-|
E|--------|--------|----------------|--------|--------|----------------|

G|--------|--------|----------------|--------|--------|----------------------------|
D|--------|--------|-7-7--7-7-9-7---|--------|--------|-7-7--7-7-7--7-7-7--7-9-9-7-|
A|-7-7--7-|-9-9--9-|--------------9-|-7-7--7-|-9-9--9-|----------------------------|
E|--------|--------|----------------|--------|--------|----------------------------|

G|--s----|----|---|---|---|----|----|----------|
D|-7\-14-|-11-|-9-|-7-|-9-|-11-|-12-|-12-11-12-|
A|-------|----|---|---|---|----|----|----------|
E|-------|----|---|---|---|----|----|----------|

G|----|----|---|---|---|----|----|
D|-14-|-11-|-9-|-7-|-9-|-11-|-12-|
A|----|----|---|---|---|----|----|
E|----|----|---|---|---|----|----|


------------------------
CHORUS
*******
02:24 
  cos it's alright, just follow the light, and don't be afraid of the dark.
G|-------|-------|-----|-----|-----|-------|-------|----------|
D|-14-14-|-11-11-|-9-9-|-7-7-|-9-9-|-11-11-|-12-12-|-12-11-12-|
A|-------|-------|-----|-----|-----|-------|-------|----------|
E|-------|-------|-----|-----|-----|-------|-------|----------|

  In the moonlight, you'll dance till you fall, and always be here in my heart.
G|-------|-------|-----|-----|-----|-------|-------|----------|
D|-14-14-|-11-11-|-9-9-|-7-7-|-9-9-|-11-11-|-12-12-|-12-11-12-|
A|-------|-------|-----|-----|-----|-------|-------|----------|
E|-------|-------|-----|-----|-----|-------|-------|----------|

  Cos it's alright,           alright now
G|-------|-------|-----|-----|-----|-------|-------|----------|
D|-14-14-|-11-11-|-9-9-|-7-7-|-9-9-|-11-11-|-12-12-|-12-11-12-|
A|-------|-------|-----|-----|-----|-------|-------|----------|
E|-------|-------|-----|-----|-----|-------|-------|----------|

  And your alright       And your alright
G|-------|-------|-----|-----|-----|-------|-------|----------|
D|-14-14-|-11-11-|-9-9-|-7-7-|-9-9-|-11-11-|-12-12-|-12-11-12-|
A|-------|-------|-----|-----|-----|-------|-------|----------|
E|-------|-------|-----|-----|-----|-------|-------|----------|


G|-------|-------|----|
D|-14-14-|-11-11-|-12-|
A|-------|-------|----|
E|-------|-------|----|



ENJOY.........

            
            
Suggest correction
Creating personal tab
Creating personal tab
You can edit any tab online and save it as your Personal.

You can edit, replace or remove any tab part or add personal notes – all changes will be seen only by you.

Personal tabs can be accessed anytime from any device, even offline.
Learn more »
Give kudos to tab author, rate the tab!
1 2 3 4 5
comments
print report bad tab
guest
You may want to rate the tab now too:
select rating
Wanna post a correction for this tab? Suggest correction