Oops, an error
Loading. Please wait.

Love Will Come Through Bass Tab

version 1
version 1

Whole song

Interactive

1,577 views 1 this week
no commentswrite comment
1 2 3 4 5
please rate
add to favorites
launch autoscroll
font size
0
reset
guitar tuner
Autoscroll
slow
fast
+/-
esc
set tempo
stop
Help us to improve Ultimate-Guitar.com Take our survey!
×
Author
Difficulty
novice
This a good song and is quite under rated due to the amazingness of earlier Travis songs.

intro

G-4--2-----------------------------------------------------------------------|
D-----4-4------5--5----------------5--5----------------5--5------------------|
A---------2--2------5--5-4--4-2--2------5--5-4--4-2--2------5--5-4--4-2--2---|
E--------------------------------------------------------------------------3-|
(continued)
G----------------------------------------------------------------------------|
D----------------------------------------------------------------------------|
A----5--5-4------------------------------------------------------------------|
E--3-------------------------------------------------------------------------|

verse
G----------------------|
D------5--5------------|
A-2--2------5--5-4--4--|
E----------------------|

chorus
G----------------6--6-4--4--------------|
D------5--5-4--4-----------5--5---------|
A-2--2--------------------------5--5-4--|
E---------------------------------------|

structure
intro x1
verse x8
chorus x2
verse x8
chorus x2
verse x2
chorus x1(let b ring after)
chorus x2
verse x4
Suggest correction
Give kudos to tab author, rate the tab!
1 2 3 4 5
comments
print report bad tab
guest
You may want to rate the tab now too:
select rating
Wanna post a correction for this tab? Suggest correction