Oops, an error
Loading. Please wait.

The Beautiful Occupation Bass Tab

version 1
version 1

Whole song

  • Pretty Novice bass to play along too.

Interactive

22 views 1 this week
no commentswrite comment
1 2 3 4 5
2 more votes to show rating
add to favorites
launch autoscroll
font size
0
reset
guitar tuner
Autoscroll
slow
fast
+/-
esc
set tempo
stop
Help us to improve Ultimate-Guitar.com Take our survey!
×
Author
Difficulty
novice
About this tab version
Pretty Novice bass to play along too. Was this info helpful? Yes No
--------------------------------------------------------------------------
                            Artist - Travis
                          ******************
                    Song - The Beautiful Occupation
                   *********************************
                      Album - 12 Memories (2003)
                     ****************************
                         Tabbed By - Ayreon77
                        **********************
--------------------------------------------------------------------------
Tuning = Standard             



INTRO
******
G|-----|-------|-------|-------|-------|-------|-------|-------|---|
D|-4-4-|-4-2-2-|-2-4-4-|-4-----|-------|-------|-------|-------|---|
A|-----|-------|-------|---4-4-|-4-2-2-|-2-----|---2-2-|-2-----|---|
E|-----|-------|-------|-------|-------|---2-2-|-2-----|---2-2-|-2-|X2


-----------------------
00:18
VERSE 1
********
G|-----|-----|-----|-----|-----|-----|-----|-----|-----|-----|-----|-----|-----|-----|-----|---------|
D|-4-4-|-4-4-|-4-4-|-4-4-|-----|-----|-----|-----|-4-4-|-4-4-|-4-4-|-4-4-|-----|-----|-----|---------|
A|-----|-----|-----|-----|-2-2-|-2-2-|-2-2-|-2-2-|-----|-----|-----|-----|-2-2-|-2-2-|-2-2-|-2-2-4-5-|
E|-----|-----|-----|-----|-----|-----|-----|-----|-----|-----|-----|-----|-----|-----|-----|---------|


-----------------------
00:34
PRE CHORUS
***********
G|---------------------------------|---------------------------------|
D|---------------------------------|---------------------------------|
A|-5-5-4-4-2-2-0-0-----------------|-5-5-4-4-2-2-0-0---------2-2-4-5-|
E|-----------------2-2-2-2-2-2-2-2-|-----------------2-2-2-2---------|X2


-----------------------
00:50
CHORUS
*******
G|-----------------|-----------------|-----------------|-----------------|
D|-----------------|-----------------|-----------------|-----------------|
A|-7-7-7-7-7-7-7-7-|-7-7-7-7-7-7-7-7-|-5-5-5-5-5-5-5-5-|-5-5-5-5-5-5-5-5-|
E|-----------------|-----------------|-----------------|-----------------|X2


-----------------------
01:06
VERSE 2
********
G|-------|-------|-------|-------|-------|-------|-------|-------|-------|-------|-------|---------|
D|-4-4-4-|-4-4-4-|-4-4-4-|-------|-------|-------|-4-4-4-|-4-4-4-|-4-4-4-|-------|-------|---------|
A|-------|-------|-------|-2-2-2-|-2-2-2-|-2-2-2-|-------|-------|-------|-2-2-2-|-2-2-2-|-2-2-4-5-|
E|-------|-------|-------|-------|-------|-------|-------|-------|-------|-------|-------|---------|


-----------------------
01:22
PRE CHORUS
***********
G|---------------------------------|---------------------------------|
D|---------------------------------|---------------------------------|
A|-5-5-4-4-2-2-0-0-----------------|-5-5-4-4-2-2-0-0---------2-2-4-5-|
E|-----------------2-2-2-2-2-2-2-2-|-----------------2-2-2-2---------|X2


-----------------------
01:38
CHORUS
*******
G|-----------------|-----------------|-----------------|-----------------|
D|-----------------|-----------------|-----------------|-----------------|
A|-7-7-7-7-7-7-7-7-|-7-7-7-7-7-7-7-7-|-5-5-5-5-5-5-5-5-|-5-5-5-5-5-5-5-5-|
E|-----------------|-----------------|-----------------|-----------------|X2


-----------------------
01:54
SOLO
*****
G|-----------------|-----------------|-----------------|-----------------|
D|-4-4-4-4-4-4-4-4-|-4-4-4-4-4-4-4-4-|-3-3-3-3-3-3-3-3-|-3-3-3-3-3-3-3-3-|
A|-----------------|-----------------|-----------------|-----------------|
E|-----------------|-----------------|-----------------|-----------------|\
                                                                           \X2
                                                                           /
G|-----------------|-----------------|-----------------|-----------------|/
D|-2-2-2-2-2-2-2-2-|-2-2-2-2-2-2-2-2-|-----------------|-----------------|
A|-----------------|-----------------|-2-2-2-2-2-2-2-2-|-2-2-2-2-2-2-2-2-|
E|-----------------|-----------------|-----------------|-----------------|


-----------------------
02:26
VERSE 3 - NO BASS
********                       Have A Nice Day
G|---------------------------------|---------|
D|---------------------------------|---------|
A|-----------------------------2-2-|-2-2-4-5-|
E|---------------------------------|---------|


-----------------------
02:42
PRE CHORUS
***********
G|---------------------------------|---------------------------------|
D|---------------------------------|---------------------------------|
A|-5-5-4-4-2-2-0-0-----------------|-5-5-4-4-2-2-0-0---------2-2-4-5-|
E|-----------------2-2-2-2-2-2-2-2-|-----------------2-2-2-2---------|X2


-----------------------
02:58
CHORUS
*******
G|-----------------|-----------------|-----------------|-----------------|
D|-----------------|-----------------|-----------------|-----------------|
A|-7-7-7-7-7-7-7-7-|-7-7-7-7-7-7-7-7-|-5-5-5-5-5-5-5-5-|-5-5-5-5-5-5-5-5-|
E|-----------------|-----------------|-----------------|-----------------|X4

-----------------------
OUTRO
******
G|---|---|---|
D|-4-|---|---|
A|---|-4-|-5-|
E|---|---|---|



ENJOY............
Suggest correction
Give kudos to tab author, rate the tab!
1 2 3 4 5
comments
print report bad tab
guest
You may want to rate the tab now too:
select rating
Wanna post a correction for this tab? Suggest correction