Oops, an error
Loading. Please wait.

Why Does It Always Rain On Me bass

version 2
version 2

Whole song

Interactive

by Travis
364 views 3 this week
no commentswrite comment
1 2 3 4 5
x 3
add to favorites
×
Save as Personal and add changes to this tab that will be seen only by you. Learn more ›
×
You can save this tab as Personal to edit and correct it or add notes. All changes will be seen only by you. Learn more »
launch autoscroll
font size
0
reset
guitar tuner
edit
Autoscroll
slow
fast
+/-
esc
set tempo
stop
Author
Difficulty
--------------------------------------------------------------------------
                            Artist - Travis 
                          ******************
                 Song - Why Does It Always Rain On Me    
                **************************************
                          Album - The Man Who
                         *********************
                          Tabbed By - Ayreon77
                         **********************
--------------------------------------------------------------------------
Tuning = Standard             



00:09
INTRO
******
G|-------------|-------------|--------------------|-------------|-------------|--------------------|
D|-------------|-------------|--------------------|-------------|-------------|--------------------|
A|-7-7-7-0-7-0-|-2-2-2-0-2---|--------------------|-7-7-7-0-7-0-|-2-2-2-0-2---|--------------------|
E|-------------|-----------4-|-5-5--4-4--2-2--0-0-|-------------|-----------4-|-5-5--4-4--2-2--0-0-|


----------------------------------
00:27
VERSE 1
********
       I can't sleep tonight       Everybody saying everything's alright
G|---|----------------------------|----------------------------------------|
D|---|----------------------------|----------------------------------------|
A|-7-|----------------------7---4-|--------------------------------4-4-6-7-|
E|---|------------------------7---|------------------------------7---------|

Still I can't close my eyes      I'm seeing a tunnel at the end of all these lights
G|------------------------------|--------------------------------------------------|
D|------------------------------|--------------------------------------------------|
A|------------------------7---4-|--------------------------------------4-----------|
E|--------------------------7---|-----------------------------------7-----7--5-5-5-|

  Sunny days             Where have you gone      I get the strangest feeling you belong. 
G|-------------|-----|-------|-------------|-----|--------------------|----------|---------|
D|-------------|-----|-------|-------------|-----|--------------------|----------|---------|
A|-------------|-4---|-------|-------------|-4---|--------------------|----------|---------|
E|-0-5-0-7-7-7-|---7-|-5-5-5-|-0-5-0-7-7-7-|---7-|-5-5--4-4--2-2--0-0-|-7-7-7-77-|-7-7-7-7-|


----------------------------------
01:02
CHORUS
*******
Why does it always rain on me. Is it because I lied when I was 17
G|-------------|-------------|-------------------------------------|
D|-------------|-------------|-------------------------------------|
A|-7-7-7-0-7-0-|-2-2-2---2---|-------------------------------------|
E|-------------|-------4---4-|-5-5---4-4-------2-2-------------0-0-|

Why does it always rain on me. Even when the sun is shining, I can't avoid the lightning
G|-------------|-------------|-----------------------------------------------------|
D|-------------|-------------|-----------------------------------------------------|
A|-7-7-7-0-7-0-|-2-2-2-0-2---|-----------------------------------------------------|
E|-------------|-----------4-|-5-5-----------4-4-------------2-2---------------0-0-|


----------------------------------
01:20
VERSE 2
*********
      I can't stand myself         I'm being held up by invisible men
G|---|----------------------------|----------------------------------------|
D|---|----------------------------|----------------------------------------|
A|-7-|----------------------7---4-|--------------------------------4-4-6-7-|
E|---|------------------------7---|------------------------------7---------|

Still life on a shelf when       I  got  my  mind  on  something  else
G|------------------------------|--------------------------------------------------|
D|------------------------------|--------------------------------------------------|
A|------------------------7---4-|--------------------------------------4-----------|
E|--------------------------7---|-----------------------------------7-----7--5-5-5-|

  Sunny days    Ohh     Where have you gone      I get the strangest feeling you belong. 
G|-------------|-----|-------|-------------|-----|--------------------|---------|---------|
D|-------------|-----|-------|-------------|-----|--------------------|---------|---------|
A|-------------|-4---|-------|-------------|-4---|--------------------|---------|---------|
E|-0-5-0-7-7-7-|---7-|-5-5-5-|-0-5-0-7-7-7-|---7-|-5-5--4-4--2-2--0-0-|-7-7-7-7-|-7-7-7-7-|


----------------------------------
01:55
CHORUS
*******
Why does it always rain on me. Is it because I lied when I was 17
G|-------------|-------------|-------------------------------------|
D|-------------|-------------|-------------------------------------|
A|-7-7-7-0-7-0-|-2-2-2-0-2---|-------------------------------------|
E|-------------|-----------4-|-5-5---4-4-------2-2-------------0-0-|

Why does it always rain on me. Even when the sun is shining, I can't avoid the lightning
G|-------------|-------------|-----------------------------------------------------|
D|-------------|-------------|-----------------------------------------------------|
A|-7-7-7-0-7-0-|-2-2-2-0-2---|-----------------------------------------------------|
E|-------------|-----------4-|-5-5-----------4-4-------------2-2---------------0-0-|


----------------------------------
02:13
BRIDGE
*******
Oh, where did the blue skies go. And why is it raining so                   It's so cold
G|-------------|-------------|---------------|-------------|--------------------|---------|-------------|
D|-------------|-------------|---------------|-------------|--------------------|---------|----------s--|
A|-4-4-4-0-4-0-|-2-2-2---2---|---4-4-4-0-4-0-|-2-2-2---2---|-5-5--4-4--2-2--0-0-|-2-2-2-2-|-0-2-2-2-2\7-|
E|-------------|-------4---4-|---------------|-------4---4-|--------------------|---------|-------------|


----------------------------------
02:32
VERSE 3
********   
I can't sleep tonight    Everybody saying everything's alright
G|----------------------|----------------------------------------|
D|----------------------|----------------------------------------|
A|--------------------4-|----------------------------------4-6-7-|
E|----------------------|--------------------------------7-------|

Still I can't close my eyes     I'm seeing a tunnel at the end of all these lights
G|-----------------------------|-------------------------------------------------|
D|-------------------------s---|-------------------------------------------------|
A|------------------------7\-4-|-------------------------------------4-----------|
E|-----------------------------|----------------------------------7----7--5-5-5--|

  Sunny days    Ohh     Where have you gone      I get the strangest feeling you belong. 
G|-------------|-----|-------|-------------|-----|--------------------|---------|---------|
D|-------------|-----|-------|-------------|-----|--------------------|---------|---------|
A|-------------|-4---|-------|-------------|-4---|--------------------|---------|---------|
E|-0-5-0-7-7-7-|---7-|-5-5-5-|-0-5-0-7-7-7-|---7-|-5-5--4-4--2-2--0-0-|-7-7-7-7-|-7-7-7-7-|


----------------------------------
03:06
CHORUS
*******
Why does it always rain on me. Is it because I lied when I was 17
G|-------------|-------------|-------------------------------------|
D|-------------|-------------|-------------------------------------|
A|-7-7-7-0-7-0-|-2-2-2-0-2---|-------------------------------------|
E|-------------|-----------4-|-5-5---4-4-------2-2-------------0-0-|

Why does it always rain on me. Even when the sun is shining, I can't avoid the lightning
G|-------------|-------------|-----------------------------------------------------|
D|-------------|-------------|-----------------------------------------------------|
A|-7-7-7-0-7-0-|-2-2-2-0-2---|-----------------------------------------------------|
E|-------------|-----------4-|-5-5-----------4-4-------------2-2---------------0-0-|


----------------------------------
03:24
BRIDGE
*******
Oh, where did the blue skies go. And why is it raining so                   It's so cold
G|-------------|-------------|---------------|-------------|--------------------|---------|-----------|
D|-------------|-------------|---------------|-------------|--------------------|---------|-----------|
A|-4-4-4-0-4-0-|-2-2-2-0-2---|---4-4-4-0-4-0-|-2-2-2---2---|-5-5--4-4--2-2--0-0-|-2-2-2-2-|-0-2-2-2-2-|
E|-------------|-----------4-|---------------|-------4---4-|--------------------|---------|-----------|


----------------------------------
03:41
CHORUS
*******
Why does it always rain on me. Is it because I lied when I was 17
G|-------------|-------------|-------------------------------------|
D|-------------|-------------|-------------------------------------|
A|-7-7-7-0-7-0-|-2-2-2-0-2---|-------------------------------------|
E|-------------|-----------4-|-5-5---4-4-------2-2-------------0-0-|

Why does it always rain on me. Even when the sun is shining, I can't avoid the lightning
G|-------------|-------------|-----------------------------------------------------|
D|-------------|-------------|-----------------------------------------------------|
A|-7-7-7-0-7-0-|-2-2-2-0-2---|-----------------------------------------------------|
E|-------------|-----------4-|-5-5-----------4-4-------------2-2---------------0-0-|

Why does it always rain on me...............................
G|-------------|-------------|-------------------------------------|
D|-------------|-------------|-------------------------------------|
A|-7-7-7-0-7-0-|-2-2-2-0-2---|-------------------------------------|
E|-------------|-----------4-|-5-5---4-4-------2-2-------------0-0-|


Why does it always rain on me...............................
G|-------------|-------------|-------------------------------------|---|
D|-------------|-------------|-------------------------------------|---|
A|-7-7-7-0-7-0-|-2-2-2-0-2---|-------------------------------------|-7-|
E|-------------|-----------4-|-5-5---4-4-------2-2-------------0-0-|---|



ENJOY.............

            
            
Suggest correction
Creating personal tab
Creating personal tab
You can edit any tab online and save it as your Personal.

You can edit, replace or remove any tab part or add personal notes – all changes will be seen only by you.

Personal tabs can be accessed anytime from any device, even offline.
Learn more »
Give kudos to tab author, rate the tab!
1 2 3 4 5
comments
print report bad tab
guest
You may want to rate the tab now too:
select rating
Wanna post a correction for this tab? Suggest correction