Oops, an error
Loading. Please wait.

Misty Morning tab

178 views 12 this week
no commentswrite comment
1 2 3 4 5
3 more votes to show rating
add to favorites
×
Save as Personal and add changes to this tab that will be seen only by you. Learn more ›
×
You can save this tab as Personal to edit and correct it or add notes. All changes will be seen only by you. Learn more »
launch autoscroll
font size
0
reset
how to read this tab
guitar tuner
edit
Autoscroll
slow
fast
+/-
esc
set tempo
stop
About this tab version
The song is actually 1/4 step down. If you try to play along with the song, it'll sound slightly off if you play it in standard. But for playing alone, standard tuning will be just fine. Was this info helpful? Yes No
The song is actually 1/4 step down. If you try to play along with the song,
it'll sound slightly off if you play it in standard. But for playing alone, 
standard tuning will be just fine. 

[Check out my playthrough here]

https://soundcloud.com/thecoooliest/misty-morning-travis-bretzer-cover

For the intro, he does this weird wiggly thing with the C note
after sliding to it. The slide also has to be very fast so that it's barely 
noticeable. It's mostly just used to add some texture, but it'll sound slightly
bland if you just play a wiggly C note. The C note in the verses is also a wiggly one.
Very important. Also, in the verses, he switches guitar tones between when he's picking the
barre chords and when he does the wiggly C note or the lead in the choruses. 
The lead part in "Maybe my mind's preoccupied" is not what Travis plays, but it's what 
I like to play. In the song he does some slide lead that I couldn't figure out.

[Intro]
e|--------------|
B|-11/13~-------|
G|--------13----|
D|--------------|
A|--------------|
E|--------------|
 
[Verse]
  G#      G#       Cm        Cm       Fm         Fm 
e|-4-------4-------------------------------------------------------|
B|---4-------4-----8---------8---------9---------9----------13~----|
G|-----5-------5-----8---------8---------10--------10--------------| (x2)
D|-------6-------6-----10--------10---------10--------10-----------|
A|------------------------10--------10---------8---------8---------|
E|-----------------------------------------------------------------|

[Chorus]
e|---6------3------------20-19-18-17-16-15-14-13-----|
B|-9------6------13--16------------------------------|
G|---------------------------------------------------|
D|---------------------------------------------------|
A|---------------------------------------------------|
E|---------------------------------------------------|

e|---6------3------------20-19-18-17-16-15-14-13-----|
B|-9------6------13--16------------------------------|
G|---------------------------------------------------|
D|---------------------------------------------------|
A|---------------------------------------------------|
E|---------------------------------------------------|

e|-13----------------------------6----3--|
B|------5h7/8------------------9----6----|
G|---------------------------------------|
D|---------------------------------------|
A|---------------------------------------|
E|---------------------------------------|

[Start from the top and repeat the exact same thing]

[Post-Chorus]
e|--------------|
B|-11/13~-------|
G|--------13----|
D|--------------|
A|--------------|
E|--------------|

[Verse 2]
  G#      G#       Cm        Cm       Fm         Fm 
e|-4-------4-------------------------------------------------------|
B|---4-------4-----8---------8---------9---------9----------13~----|
G|-----5-------5-----8---------8---------10--------10--------------|  (x2)
D|-------6-------6-----10--------10---------10--------10-----------|
A|------------------------10--------10---------8---------8---------|
E|-----------------------------------------------------------------|

[Chorus]
e|---6------3------------20-19-18-17-16-15-14-13-----|
B|-9------6------13--16------------------------------|
G|---------------------------------------------------|
D|---------------------------------------------------|
A|---------------------------------------------------|
E|---------------------------------------------------|

e|---6------3------------20-19-18-17-16-15-14-13-----|
B|-9------6------13--16------------------------------|
G|---------------------------------------------------|
D|---------------------------------------------------|
A|---------------------------------------------------|
E|---------------------------------------------------|

e|-13----------------------------6----3--|
B|------5h7/8------------------9----6----|
G|---------------------------------------|
D|---------------------------------------|
A|---------------------------------------|
E|---------------------------------------|


************************************

| /  Slide up
| ~  Vibrato
| h  Hammer-on

************************************

            
            
Suggest correction
Creating personal tab
Creating personal tab
You can edit any tab online and save it as your Personal.

You can edit, replace or remove any tab part or add personal notes – all changes will be seen only by you.

Personal tabs can be accessed anytime from any device, even offline.
Learn more »
Give kudos to tab author, rate the tab!
1 2 3 4 5
comments
print report bad tab
guest
You may want to rate the tab now too:
select rating
Wanna post a correction for this tab? Suggest correction