Oops, an error
Loading. Please wait.

Billionaire Tab

version 1
version 1

Whole song

Interactive

591,398 views 126 this week
12 commentsread comments
1 2 3 4 5
excellent!
x 65
add to favorites
launch autoscroll
font size
0
reset
how to read this tab
guitar tuner
Autoscroll
slow
fast
+/-
esc
set tempo
stop
Help us to improve Ultimate-Guitar.com Take our survey!
×
Author
Billionaire ft. Bruno Mars - Travie McCcoy
Good song

First tab so sorry if there’s mistakes
Bass notes played with thumb, last 3 played with other 3 fingers
And all of these are barre chords, i just put the 3 strings you actually play.
(All lines of x’s are palm mutes)


[Verse]

     1.   I  wanna be a billionaire  so freakin  baad          By all of the things   I  never
     2. I wanna be on the cover of  Forbes magazine          Smilin next to oprah and the
      A                     C#7                      F#m
e|---5--x--5----5--x--5-----4--x--4-----4--x--4-----9---x--9-----9---x--9--|
B|---5--x--5----5--x--5-----6--x--6-----6--x--6-----10--x--10----10--x--10-|
G|---6--x--6----6--x--6-----4--x--4-----4--x--4-----11--x--11----11--x--11-|
D|------x----------x-----------x-----------x------------x------------x-----|
A|------x----------x------4----x------—----x-----9------x------------x-----|
E|-5----x----------x-----------x-----------x------------x------------x-----|

  Had
  queen
    E
e|---7--x--7-----7--x--7-------------|
B|---9--x--9-----9--x--9-------------|
G|---9--x--9-----9--x--9------------o|
D|------x-----------x----------------| (x2)
A|-7----x-----------x---------------o|
E|------x-----------x----------------|


[Hook]

  Every    time   I   close  my eyes (watcha see watcha see)
  I  see my name in shining lights  (yeah what else?)

    D          E           F#m
e|------x-----------x------------x--------------x--------|
B|---7--x--7-----9--x--9-----9---x--9-------9---x--9-----|
G|---7--x--7-----9--x--9-----10--x--10------10--x--10---o|
D|---7--x--7-----9--x--9-----11--x--11------11--x--11----|(x2)
A|-5----x-----7-----x-----9------x--------------x-------o|
E|------x-----------x------------x--------------x--------|


  A   different       city  every night I  swear the      world     better

    D          E            A      G#/A    F#m   E    D
e|------x-----------x-----------------------------------x-------x----|
B|---7--x--7-----9--x--9------14-----14----9-----9----7-x-7---7-x-7--|
G|---7--x--7-----9--x--9------14-----14----10----9----7-x-7---7-x-7--|
D|---7--x--7-----9--x--9------14-----14----11----9----7-x-7---7-x-7--|
A|-5----x------7----x------12-----11-----9-----7----5---x-------x----|
E|------x-----------x-----------------------------------x-------x----|


  Prepare for when I’m a billionare
    C#7               A
e|-----x--------x------------------------------------|
B|---4-x-4----4-x-4----------------------------------|
G|---6-x-6----6-x-6----------------------------------|
D|---4-x-4----4-x-4----------------------------------|
A|-4---x--------x------------------------------------|
E|-----x--------x------------------------------------|


  Ohhh whoah ooh whaoh (when i'm a billionaire)...
e|-----x--------x--------x-------x----------------------|
B|---2-x-2----3-x-3----7-x-7---7-x-7--------------------|
G|---2-x-2----4-x-4----7-x-7---7-x-7--------------------|
D|---2-x-2----5-x-5----7-x-7---7-x-7--------------------|
A|-----x--------x--------x-------x----------------------|
E|-2---x----5---x----7---x-------x----------------------|



************************************

| x  Dead note 

************************************
Suggest correction
comments
print report bad tab
12 comments total. Showing first comments. show 1 bad comment
0 reply
baloon333 152 wrote on May 5 2010, 12:47 am

Very nice tab, only suggestion would be that I'm pretty each bass note is only played once, and then you play the high notes four times.

+3 reply
DC40 10 wrote on May 5 2010, 09:59 pm

good tab, but i think its easier to play with barre chords

guest
You may want to rate the tab now too:
select rating
Please do not post tabs as comments. Select "correction" instead!