Oops, an error
Loading. Please wait.

Minefield tab

121 views 1 this week
no commentswrite comment
1 2 3 4 5
3 more votes to show rating
add to favorites
×
Save as Personal and add changes to this tab that will be seen only by you. Learn more ›
×
You can save this tab as Personal to edit and correct it or add notes. All changes will be seen only by you. Learn more »
launch autoscroll
font size
0
reset
how to read this tab
guitar tuner
edit
Autoscroll
slow
fast
+/-
esc
set tempo
stop
First off, I'd highly recommend listening to both the album version and watching some live versions on 
youtube.  This is a heart-wrenchingly emotional song, and he plays it slightly differently in each each video
you watch or listening to.  Check it out.

Second, this is my first tab, so here goes:

This song is tuned in a modified Open C, where the high E chord is tuned to a high G.  In the album version he
doesn't play the 1st string much outside of the the intro, but in some of his live performances on youtube he
throws it in quite a bit.  In this tab I pluck the the open 1st string every time I pluck the A note (6th 
string, 9th fret) and every time I pluck the 6th string in the chorus.  If you're a relative rookie like 
myself, you'll like this one because it's fairly easy to add notes in and make it your own.

Have fun, get after it!


[Intro]

g|-------0-----0-----------------------0-----0------------------------|
C|----------0-----0-0---0-0---0-0--------0-----0-0---0-0---0-0---0-0--|
G|----------0-----0-0---0-0---0-0--------0-----0-0---0-0---0-0---0-0--|
C|--------------------------------------------------------------------|
G|--8h9--11-----------------------8h9--11-----------------------------|
C|-------------9------7-----5----------------9-----7-----5-----0------|


[Verse 1]

g|-0-----------------------0-----------------------0-----------------------|
C|---0-0---0-0---0-0---0-0---0-0---0-0---0-0---0-0---0-0---0-0---0-0---0-0-|
G|---0-0---0-0---0-0---0-0---0-0---0-0---0-0---0-0---0-0---0-0---0-0---0-0-|
C|-------------------------------------------------------------------------|
G|-------------------------------------------------------------------------|
C|-9-----7-----5-----0-----9-----7-----5-----0-----9-----7-----5-----0-----|
      
g|-0-----------------------0-----------------------|
C|---0-0---0-0---0-0---0-0---0-0---0-0---0-0---0-0-|
G|---0-0---0-0---0-0---0-0---0-0---0-0---0-0---0-0-|
C|-------------------------------------------------|
G|-------------------------------------------------|
C|-9-----7-----5-----0-----9-----7-----5-----0-----|


[Verse 2]

g|-0-----------------------0-----------------------0-----------------------|
C|---0-0---0-0---0-0---0-0---0-0---0-0---0-0---0-0---0-0---0-0---0-0---0-0-|
G|---0-0---0-0---0-0---0-0---0-0---0-0---0-0---0-0---0-0---0-0---0-0---0-0-|
C|-------------------------------------------------------------------------|
G|-------------------------------------------------------------------------|
C|-9-----7-----5-----0-----9-----7-----5-----0-----9-----7-----5-----0-----|
      
g|-0-----------------------0-----------------------|
C|---0-0---0-0---0-0---0-0---0-0---0-0---0-0---0-0-|
G|---0-0---0-0---0-0---0-0---0-0---0-0---0-0---0-0-|
C|-------------------------------------------------|
G|-------------------------------------------------|
C|-9-----7-----5-----0-----9-----7-----5-----0-----|


[Chorus]

g|-0-----0-----0-----0-----0-----0-----0-----0-----0-----0-----0-----0-----|
C|---0-0---0-0---0-0---0-0---0-0---0-0---0-0---0-0---0-0---0-0---0-0---0-0-|
G|---0-0---0-0---0-0---0-0---0-0---0-0---0-0---0-0---0-0---0-0---0-0---0-0-|
C|-------------------------------------------------------------------------|
G|-------------------------------------------------------------------------|
C|-5-----5-----0-----7-----5-----5-----0-----0-----9-----7-----5-----0-----|

g|-0-----0-----0-----0-----0-----0-----0-----0-----|
C|---0-0---0-0---0-0---0-0---0-0---0-0---0-0---0-0-|
G|---0-0---0-0---0-0---0-0---0-0---0-0---0-0---0-0-|
C|-------------------------------------------------|
G|-------------------------------------------------|
C|-9-----7-----5-----0-----9-----7-----5-----0-----|


[Verse 3]

g|-0-----------------------0-----------------------0-----------------------|
C|---0-0---0-0---0-0---0-0---0-0---0-0---0-0---0-0---0-0---0-0---0-0---0-0-|
G|---0-0---0-0---0-0---0-0---0-0---0-0---0-0---0-0---0-0---0-0---0-0---0-0-|
C|-------------------------------------------------------------------------|
G|-------------------------------------------------------------------------|
C|-9-----7-----5-----0-----9-----7-----5-----0-----9-----7-----5-----0-----|

g|-0------------------------0-----------------------|
C|---0-0---0-0---0-0---0-0----0-0---0-0---0-0---0-0-|
G|---0-0---0-0---0-0---0-0----0-0---0-0---0-0---0-0-|
C|--------------------------------------------------|
G|--------------------------------------------------|
C|-9-----7-----5-----0------9-----7-----5-----0-----|


[Chorus]

g|-0-----0-----0-----0-----0-----0-----0-----0-----0-----0-----0-----0-----|
C|---0-0---0-0---0-0---0-0---0-0---0-0---0-0---0-0---0-0---0-0---0-0---0-0-|
G|---0-0---0-0---0-0---0-0---0-0---0-0---0-0---0-0---0-0---0-0---0-0---0-0-|
C|-------------------------------------------------------------------------|
G|-------------------------------------------------------------------------|
C|-5-----5-----0-----7-----5-----5-----0-----0-----9-----7-----5-----0-----|

g|-0-----0-----0-----0-----0-----0-----0-----0-----0-----0-----0-----0-----|
C|---0-0---0-0---0-0---0-0---0-0---0-0---0-0---0-0---0-0---0-0---0-0---0-0-|
G|---0-0---0-0---0-0---0-0---0-0---0-0---0-0---0-0---0-0---0-0---0-0---0-0-|
C|-------------------------------------------------------------------------|
G|-------------------------------------------------------------------------|
C|-9-----7-----5-----0-----9-----7-----5-----0-----9-----7-----5-----0-----|


[Outro]
      
g|--------------------------------------------------|
C|--------------------------------------------------|
G|--------------------------------------------------|
C|--------------------------------------------------|
G|--------------------------------------------------|
C|-9-----7-----5-----0------9-----7-----5-----0-----|



************************************

| h  Hammer-on

************************************
Suggest correction
Creating personal tab
Creating personal tab
You can edit any tab online and save it as your Personal.

You can edit, replace or remove any tab part or add personal notes – all changes will be seen only by you.

Personal tabs can be accessed anytime from any device, even offline.
Learn more »
Give kudos to tab author, rate the tab!
1 2 3 4 5
comments
print report bad tab
guest
You may want to rate the tab now too:
select rating
Wanna post a correction for this tab? Suggest correction