Oops, an error
Loading. Please wait.

T R O U B L E Tab

version 1
version 1

Whole song

  • Includes all lead guitar parts and interludes, not just chords.

Interactive

58 views 6 this week
no commentswrite comment
1 2 3 4 5
3 more votes to show rating
add to favorites
launch autoscroll
font size
0
reset
how to read this tab
guitar tuner
×
Best way to learn
"T R O U B L E"
Autoscroll
slow
fast
+/-
esc
set tempo
stop
Author
Difficulty
intermediate
About this tab version
Includes all lead guitar parts and interludes, not just chords. Was this info helpful? Yes No
[Intro] [Guitar 1]
e|---------------------------|-------------------------------|
B|-s6-6-s6-6-s6-6-s6-6-6-6---|-------------------------------|
G|-s7-7-s7-7-s7-7-s7-7-7-7-9-|-------------------------------|
D|---------------------------|-5-s5-5-s5-5-s5-5-s5-5-5-5-5-5-|
A|---------------------------|--s5-5-s5-5-s5-5-s5-5-5-5-5-5--|
E|---------------------------|-------------------------------|

[Intro] [Guitar 2] [Slide]
e|---------------|----18b-----------------|
B|-20------------|-20-----20p18----18-18b-|
G|----17rb-------|--------------19--------|
D|---------20-17-|------------------------|
A|---------------|------------------------|
E|---------------|------------------------|

For the purposes of the verse and chorus, this is the strumming pattern/notes to be played.  I'll just write
G, C and D over the words like a chord guide, but this is what you should play:

       "G"            "C"          "D"

e|-------------|-------------|-------------|
B|-------------|-------------|-------------|
G|-------------|-------------|-------------|
D|-------------|-5-5-7-5-5-7-|-7-7-9-7-7-9-|
A|-5-5-7-5-5-7-|-3-3-3-3-3-3-|-5-5-5-5-5-5-|
E|-3-3-3-3-3-3-|-------------|-------------|

               C                                   G
Well I play an old guitar from nine till half past one
         D                                C              G
I'm just tryin' to make a livin' watching everybody else havin' fun
       C                                            G
Well I don't miss much if it happens on a dancehall floor
D               C                        G
Mercy look what just walked through that door

[Chorus]
     C                 G
Well hello T-R-O-U-B-L-E

e|---------------|
B|-3----3----3---|
G|---3b---3b---0-|
D|---------------|
A|---------------|
E|---------------|

        D
Tell me what in the world
          C       G
You doin' A-L-O-N-E
         C                         G
Yeah say hey good L double O-K-I-N-G

e|------------|
B|------------|
G|-5b-5b-3b---|
D|----------5-|
A|------------|
E|------------|

     D           C
Well I smell T-R-O-U-B-L-E

e|-------------------------|
B|-------------------------|
G|-3s5-5-3s5-5-3s5-5-3s5-5-| then back to G
D|-3s5-5-3s5-5-3s5-5-3s5-5-|
A|-------------------------|
E|-------------------------|

I was a little bitty baby when my papa hit the skids
Mama had a time tryin' to raise nine kids
She told me not to stare cause it was impolite
She did the best she could to try to raise me right
      C                                           G
Cause mama never told me 'bout nothin' like why-O-you
         D                       C                  G
Bet your mama musta been another good lookin' honey too

e|-22s0-----20----|
B|------22b----20-|
G|----------------|
D|----------------|
A|----------------|
E|----------------|

C                         G
Hey good L double O-K-I-N-G
     D (single)  C (single) G 
Well I smell T-R-O-U-B-L-E

Piano, then hit this note over and over again, however you want:

e|-7--|---|-----|
B|-9b-|---|-11--|
G|----|-3-|-13b-| 
D|----|---|-----|
A|----|---|-----|
E|----|---|-----|

Well a sweet talkin', sexy walkin', honky tonkin' baby
The men are gonna love ya and the woman gonna hate ya
Remindin' them of everything they're never gonna be
May be the beginning of a world war three
          C                                        G
Cause the world ain't ready for nothing like why-O-you
           D                       C                 G
I bet your mama musta been another good lookin' mama too
        C                         G
Hey say hey good L double O-K-I-N-G
     D (single)  C (single) G
Well I smell T-R-O-U-B-L-E

e|-------------------------|
B|-------------------------|
G|-3s5-5-3s5-5-3s5-5-3s5-5-|
D|-3s5-5-3s5-5-3s5-5-3s5-5-|
A|-------------------------|
E|-------------------------|

I said hey
e|------------|
B|------------|
G|-5b-5b-3b---|
D|----------5-|
A|------------|
E|------------|

I said hey
e|----------3-|
B|------------|
G|-5b-5b-3b---|
D|------------|
A|------------|
E|------------|

I said hey
e|------------|
B|------------|
G|-5b-5b-3b---|
D|----------5-|
A|------------|
E|------------|

I said hey
I said hey
D           C       G
I smell T-R-O-U-B-L-E

"s": slide
"b": bend
"rb": reverse bend; start of bending, strum, then lower the bend to the normal position
"p": pull finger from one note to play other
Suggest correction
Give kudos to tab author, rate the tab!
1 2 3 4 5
comments
print report bad tab
guest
You may want to rate the tab now too:
select rating
Wanna post a correction for this tab? Suggest correction