Oops, an error
Loading. Please wait.

Il Mondo Prima bass

397 views 1 this week
no commentswrite comment
1 2 3 4 5
3 more votes to show rating
add to favorites
×
Save as Personal and add changes to this tab that will be seen only by you. Learn more ›
×
You can save this tab as Personal to edit and correct it or add notes. All changes will be seen only by you. Learn more »
launch autoscroll
font size
0
reset
guitar tuner
edit
Autoscroll
slow
fast
+/-
esc
set tempo
stop
Author
Difficulty
Sul sito c'è un tab perfetto per la chitarra ma nessun tab per il basso quindi ho provato a farlo. 
Per qualunque dubbio o correzione mandatemi un'email a tox14111@aol.com

Intro:

Solo chitarra
G|--------------|
D|--------------|
A|--------------|
E|--------------|


Strofa 1:
Da "Era bello..." Fino a "la voglia ritorna anche a te"

G|--0---0---0-----|
D|----------------|
A|----3---7---5---|  x2
E|3---------------|

Stacco 1:

G|--------------|
D|--------------|
A|333-333-333--3| x2
E|--------------|

Strofa 1 continuata:

Da "Era bello..." Fino a "E tutto il giorno dormire"

G|--0---0---0-----|
D|----------------|
A|----3---7---5---|  x4
E|3---------------|

Ritornello:
"Il mondo prima che arrivassi te"
G|--------------|
D|--------------|
A|333-333-333--3| x4
E|--------------|

Stacco 2:
"Era bello cadere d'autunno sopra le foglie come le foglie"

G|-------------------|
D|-------------------|
A|---2--3--5--2-----0|
E|3--------------3---|

Assolo:

G|--0---0---0-----|
D|----------------|
A|----3---7---5---|  x2
E|3---------------|

Strofa 2
Da "Era bello sentirti cantare..." Fino a "...Era bello,era bello"
G|--0---0---0------|
D|-----------------|
A|----3---7---5-7--|
E|3----------------|

G|--0---0---0-----|
D|----------------|
A|----3---7---5---|
E|3---------------|

Ritornello:

"Il mondo prima che arrivassi te"
G|--------------|
D|--------------|
A|333-333-333--3| x4
E|--------------|

Strofa 3: 

Solo chitarra fino a "cercare qualcosa di me" poi

G|--0---0---0-----|
D|----------------|
A|----3---7---5---| x2
E|3---------------|

Ritornello:

"Il mondo prima che arrivassi te"
G|--------------|
D|--------------|
A|333-333-333--3| x4
E|--------------|

Finite con 

G|-----|
D|-----|
A|-----|
E|-3---|

That's all folks!

Spero che il tab sia giusto,ma anche se fosse suona abbastanza bene quindi HEY CHISSENE
Divertitevi
TOX

Suggest correction
Creating personal tab
Creating personal tab
You can edit any tab online and save it as your Personal.

You can edit, replace or remove any tab part or add personal notes – all changes will be seen only by you.

Personal tabs can be accessed anytime from any device, even offline.
Learn more »
Give kudos to tab author, rate the tab!
1 2 3 4 5
comments
print report bad tab
guest
You may want to rate the tab now too:
select rating
Wanna post a correction for this tab? Suggest correction