Oops, an error
Loading. Please wait.

Roar Tab

version 1
version 1

Whole song

Interactive

3,664 views 1 this week
1 commentread comment
1 2 3 4 5
please rate
add to favorites
launch autoscroll
font size
0
reset
how to read this tab
guitar tuner
Autoscroll
slow
fast
+/-
esc
set tempo
stop
Help us to improve Ultimate-Guitar.com Take our survey!
×
Author
Difficulty
Tuning
intermediate
D A D G B E
-------------------------------------------------------------------------------
                             Roar - Treat
-------------------------------------------------------------------------------
Tabbed by: Boggan
Email: boggan@live.se

Tuning: Drop D

Intro

e|-----------------------------| 4x
B|-----------------------------|
G|-----------------------------|
D|----9----9-------9-----9-----|
A|------7~---9~------10~---9~--|
D|-/9-----------/9-------------|

Intro solo (Comes after you've played the intro riff two times)

e|------------------------------------|
B|------------7h8p7-------------------|
G|-9b11~--7-9------9b11~--7p6-7p6-----|
D|--------------------------------9~--|
A|------------------------------------|
D|------------------------------------|

Verse

e|-----------------------------| 2x 
B|-----------------------------|
G|-----------------------------|
D|----9----9-------9-----9-----|
A|------7~---9~------10~---9~--|
D|-/9-----------/9-------------|

Pre-chorus

e|----------------------------------------------------------------|
B|----------------------------------------------------------------|
G|-7---6---7---6---7---6---7---6---7---6--7---6---6-----7-----9---|
D|---5---5---5---5---5---5---5---5------------------9-9---9-9---9-|
A|-----------------------------------7--7---7---7-----------------|
D|----------------------------------------------------------------|

e|----------------------------------------------------------------------------|
B|--------------------------------------9-------9-----------------------------|
G|-7---6---7---6---7---6---7---6---9--------9---------------------------------|
D|---5---5---5---5---5---5---5---5--------------------------------------------|
A|-----------------------------------7---7---7---7--7-9---10-9---7-9---10-9~--|
D|------------------------------------------------------9------9-----9--------|

Chorus

e|----------------------------------------------------------------|
B|----------------------------------------------------------------|
G|----------------------------------------------------------------|
D|-9-9-9-9-9-9-9-5-5-5-5-5-5-5-5-0-0-0-0-0-0-----7-7-7-7-7-7-7-7\-|
A|-9-9-9-9-9-9-9-5-5-5-5-5-5-5-5-0-0-0-0-0-0-----7-7-7-7-7-7-7-7\-|
D|-9-9-9-9-9-9-9-5-5-5-5-5-5-5-5-0-0-0-0-0-0-2-4-7-7-7-7-7-7-7-7\-|

e|-----------------------------------------------------------------------|
B|-----------------------------------------------------------------------|
G|---------------------------------11-11-11-11-11-11-11-4-4-4-4-4-4------|
D|---------------------------------11-11-11-11-11-11-11-4-4-4-4-4-4------|
A|-----2---4---5-------2---4---5---9--9--9--9--9--9--9--4-4-4-4-4-4------|
D|-2-2---2---2---2-0-0---0---0---0----------------------4-4-4-4-4-4-2-0--|

e|----------------------------------------------------------------|
B|----------------------------------------------------------------|
G|----------------------------------------------------------------|
D|-9-9-9-9-9-9-9-5-5-5-5-5-5-5-5-0-0-0-0-0-0-----7-7-7-7-7-7-7-7\-|
A|-9-9-9-9-9-9-9-5-5-5-5-5-5-5-5-0-0-0-0-0-0-----7-7-7-7-7-7-7-7\-|
D|-9-9-9-9-9-9-9-5-5-5-5-5-5-5-5-0-0-0-0-0-0-2-4-7-7-7-7-7-7-7-7\-|

e|----------------------------------|
B|----------------------------------|
G|----------------------------------|
D|-----------------4----------------|
A|-----4---5---4-------7---5---4----|
D|-4-4---4---4---4---4---4---4---4--|

Bridge (Intro riff played twice with a little guitar solo over it)

e|------7--------------------------------------12-14-15-14~--|
B|-10-----10p7------------------------12-14-15---------------|
G|-9b11-------9b11r9p7-9-7~----------------------------------|
D|--------------------------9p7-9-9~-------------------------|
A|-----------------------------9-----------------------------|
D|-----------------------------------------------------------|

Verse

e|-----------------------------| 2x 
B|-----------------------------|
G|-----------------------------|
D|----9----9-------9-----9-----|
A|------7~---9~------10~---9~--|
D|-/9-----------/9-------------|

Pre-chorus

e|----------------------------------------------------------------|
B|----------------------------------------------------------------|
G|-7---6---7---6---7---6---7---6---7---6--7---6---6-----7-----9---|
D|---5---5---5---5---5---5---5---5------------------9-9---9-9---9-|
A|-----------------------------------7--7---7---7-----------------|
D|----------------------------------------------------------------|

e|----------------------------------------------------------------------------|
B|--------------------------------------9-------9-----------------------------|
G|-7---6---7---6---7---6---7---6---9--------9---------------------------------|
D|---5---5---5---5---5---5---5---5--------------------------------------------|
A|-----------------------------------7---7---7---7--7-9---10-9---7-9---10-9~--|
D|------------------------------------------------------9------9-----9--------|

Chorus

e|----------------------------------------------------------------|
B|----------------------------------------------------------------|
G|----------------------------------------------------------------|
D|-9-9-9-9-9-9-9-5-5-5-5-5-5-5-5-0-0-0-0-0-0-----7-7-7-7-7-7-7-7\-|
A|-9-9-9-9-9-9-9-5-5-5-5-5-5-5-5-0-0-0-0-0-0-----7-7-7-7-7-7-7-7\-|
D|-9-9-9-9-9-9-9-5-5-5-5-5-5-5-5-0-0-0-0-0-0-2-4-7-7-7-7-7-7-7-7\-|

e|-----------------------------------------------------------------------|
B|-----------------------------------------------------------------------|
G|---------------------------------11-11-11-11-11-11-11-4-4-4-4-4-4------|
D|---------------------------------11-11-11-11-11-11-11-4-4-4-4-4-4------|
A|-----2---4---5-------2---4---5---9--9--9--9--9--9--9--4-4-4-4-4-4------|
D|-2-2---2---2---2-0-0---0---0---0----------------------4-4-4-4-4-4-2-0--|

e|----------------------------------------------------------------|
B|----------------------------------------------------------------|
G|----------------------------------------------------------------|
D|-9-9-9-9-9-9-9-5-5-5-5-5-5-5-5-0-0-0-0-0-0-----7-7-7-7-7-7-7-7\-|
A|-9-9-9-9-9-9-9-5-5-5-5-5-5-5-5-0-0-0-0-0-0-----7-7-7-7-7-7-7-7\-|
D|-9-9-9-9-9-9-9-5-5-5-5-5-5-5-5-0-0-0-0-0-0-2-4-7-7-7-7-7-7-7-7\-|

e|----------------------------------|
B|----------------------------------|
G|----------------------------------|
D|-----------------4----------------|
A|-----4---5---4-------7---5---4----|
D|-4-4---4---4---4---4---4---4---4--|

Pre-solo

e|-----|
B|-----|
G|-----|
D|-9-9-|
A|-9-9-|
D|-9-9-|

Guitar solo

E|------------------------------------7----7----7----------------------------------------|
B|-10-----10------------------7h8p7~---7\5--5\3------------------------------------------|
G|-9b11---9b11r9p7------6-7-9--------------------6b7~-6-7p6------------------------------|
D|----------------9~--9-------------------------------------9-8-9-\4b5r4-4~---4-4b5r4-4~-|
A|---------------------------------------------------------------------------7-----------|
D|---------------------------------------------------------------------------------------|

E|-----7----------------------------------------------------------------------------------------|
B|------10p7-7-------------------19~----17~----14b15r14-------17-14h15p14------------19~----17~-|
G|-9b11-----9-9h10p9p7-9-7~--16-----16-----16-----------16-14---------------16~--16-----16------|
D|--------------------9--------------------------------------------------14---------------------|
A|----------------------------------------------------------------------------------------------|
D|----------------------------------------------------------------------------------------------|

e|-10-9-7--7----------------------------------------------------------------|
B|-------10-10-7--7-------------------------------15~----------15-17-19-17~-|
G|--------------10-10-9-7-9-9p7-7~-------14~-14-16----14-16-18--------------|
D|-----------------------------9-----/16------------------------------------|
A|--------------------------------------------------------------------------|
D|--------------------------------------------------------------------------|

e|-14----14-14----14-14----14-14-----|
B|-17b19----17b19----17b19----17b19--|
G|-----------------------------------|
D|-----------------------------------|
A|-----------------------------------|
D|-----------------------------------|

Chorus

e|----------------------------------------------------------------|
B|----------------------------------------------------------------|
G|----------------------------------------------------------------|
D|-9-9-9-9-9-9-9-5-5-5-5-5-5-5-5-0-0-0-0-0-0-----7-7-7-7-7-7-7-7\-|
A|-9-9-9-9-9-9-9-5-5-5-5-5-5-5-5-0-0-0-0-0-0-----7-7-7-7-7-7-7-7\-|
D|-9-9-9-9-9-9-9-5-5-5-5-5-5-5-5-0-0-0-0-0-0-2-4-7-7-7-7-7-7-7-7\-|

e|-----------------------------------------------------------------------|
B|-----------------------------------------------------------------------|
G|---------------------------------11-11-11-11-11-11-11-4-4-4-4-4-4------|
D|---------------------------------11-11-11-11-11-11-11-4-4-4-4-4-4------|
A|-----2---4---5-------2---4---5---9--9--9--9--9--9--9--4-4-4-4-4-4------|
D|-2-2---2---2---2-0-0---0---0---0----------------------4-4-4-4-4-4-2-0--|

e|----------------------------------------------------------------|
B|----------------------------------------------------------------|
G|----------------------------------------------------------------|
D|-9-9-9-9-9-9-9-5-5-5-5-5-5-5-5-0-0-0-0-0-0-----7-7-7-7-7-7-7-7\-|
A|-9-9-9-9-9-9-9-5-5-5-5-5-5-5-5-0-0-0-0-0-0-----7-7-7-7-7-7-7-7\-|
D|-9-9-9-9-9-9-9-5-5-5-5-5-5-5-5-0-0-0-0-0-0-2-4-7-7-7-7-7-7-7-7\-|

e|----------------------------------|
B|----------------------------------|
G|----------------------------------|
D|-----------------4----------------|
A|-----4---5---4-------7---5---4----|
D|-4-4---4---4---4---4---4---4---4--|

Outro solo (The rythm is the intro riff played six times)
                                                                   
e|--------------7----------------------------7-----7------9-----9------10----10----|
B|-10----10b12---10-7--10-7------------------10b12-10b12--12b14-12b14--13b15-13b15-|
G|-9b11--------------10----10-7-10-9-7---7~----------------------------------------|
D|-------------------------------------9-------------------------------------------|
A|---------------------------------------------------------------------------------|
D|---------------------------------------------------------------------------------|

                              (Kinda tricky timing on this last lick)
e|-12----12-----14----14------12-15-14p12----14-12----12---------------------------------------|
B|-15b17-15b17--17b19-17b19---------------15-------15----15-14-15p14p12----12-------15---------|
G|----------------------------------------------------------------------14----14b16----14b16~--|
D|---------------------------------------------------------------------------------------------|
A|---------------------------------------------------------------------------------------------|
D|---------------------------------------------------------------------------------------------|

End of song


************************************

| /   slide up
| \   slide down
| h   hammer-on
| p   pull-off
| ~   vibrato
| +   harmonic
| x   Mute note
| b   Bend
| pb  Pre-bend
| br  Bend release
| pbr Pre-bend release
| brb Bend release bend

************************************
Suggest correction
Give kudos to tab author, rate the tab!
1 2 3 4 5
comments
print report bad tab
1 comment total.
0 reply
graeme94 10 wrote on June 28 2011, 12:46 pm

Thank you so much for making this, i have been wanting a tba for this song for ages!! :DD

guest
You may want to rate the tab now too:
select rating
Please do not post tabs as comments. Select "correction" instead!