Oops, an error
Loading. Please wait.

Brand New Low Bass Tab

version 2
version 2

Whole song

Interactive

619 views 3 this week
1 commentread comment
1 2 3 4 5
please rate
add to favorites
launch autoscroll
font size
0
reset
guitar tuner
Autoscroll
slow
fast
+/-
esc
set tempo
stop
Help us to improve Ultimate-Guitar.com Take our survey!
×
Difficulty
intermediate
Song: BRAND NEW LOW
Band: TREBLE CHARGER
TABBER: Chris LaBenne (a.k.a. World's Hottest Bass Player)

INTRO
All guitar. 

VERSE ONE (1st PART)
No bass yet. Don't come in until after "I'll still be the same."

BASS ENTRY (2nd half of VERSE ONE)
G--------------------------------------------------------------|
D--2--1--------------------------------------------------------|
A--------4-2-4----------1-4-1------2--4-2-1----------------4---|
E--------------2--2---2-------2-0-----------2--2---2-2-4-6-----|

PRECHORUS                                               Play this 1st time only
G||----------------------------------------------------||------------------|
D||.--------------------------------------------------.||-------4----------|
A||.--0-0-0-0-0-0-0-0-----------------2-2-2-2-2-2-2-2-.||-----4-----4------|
E||-------------------0-0-0-0-0-0-0-0------------------||-2-2-----------2--|

CHORUS (2nd time, play open D instead of 1st ending)            Play 1st time only
G||-----------------------------------------------------------||----------|
D||.-4-2-4-4-0-0-0-0---------------------------------0-0-0-0-.||-2-2-2-2--|
A||.-----------------0-0-0-0-2-2-2-2---------0-0-0-0---------.||----------|
E||----------------------------------2-0-2-2------------------||----------|

REPEAT BASS ENTRY/VERSE ONE
REPEAT PRECHORUS
REPEAT CHORUS

INTERLUDE
No bass here. Slow, psychadelic guitar part.

BRIDGE BASS ENTRY
G||------------------------------------||-----------------------------------|
D||.----------2-2-2-2-----------------.||--0-0-0-0-0-0-0-0-2-2-2-2-2-2-2-2--|
A||.--0-0-0-0---------2-2-2-2-2-2-2-2-.||-----------------------------------|
E||------------------------------------||-----------------------------------|

GUITAR SOLOS
No bass here.

REPEAT CHORUS

OUTRO (lyrics shout "Nothing I know without you")
G------------------------------------|
D--4-2-4-2-0-----0-1---1---2-1-2-3---| Repeat
A------------0-2-----2---2-----------|   3x
E------------------------------------|

END OF SONG
G--------------------||
D------------0~~~----||
A-------0~~~---------||
E--2~~~--------------||


This tab is 100% correct. Trust me. If there are any problems, contact me at SlapBassProdigy@aim.com.

--Chris LaBenne--
--THE TWO KINGS--
Suggest correction
Give kudos to tab author, rate the tab!
1 2 3 4 5
comments
print report bad tab
1 comment total.
0 reply
BluntLogic 10 wrote on December 5 2011, 01:23 am

awesome that these guys are outta the sault! great f-ing band!

guest
You may want to rate the tab now too:
select rating
Wanna post a correction for this tab? Suggest correction