Oops, an error
Loading. Please wait.

Favorite Worst Enemy Tab

75 views 1 this week
no commentswrite comment
1 2 3 4 5
excellent!
x 1
add to favorites
launch autoscroll
font size
0
reset
how to read this tab
guitar tuner
Tab Pro tools
  • play this tab
  • loop segment
  • change instrument
  • show fretboard
  • metronome
Autoscroll
slow
fast
+/-
esc
set tempo
stop
Contributor
Treble Charger
Favorite Worst Enemy
Wide Awake Bored(2000)
Tabbed by: Fuse49

Intro: x2

Bill:

e|------------------------------------------------------------------------|
B|--9h10-9--7----------------------------------9h10-9--7---12---12--------|
G|------------9--11--11-11-11-11-11-11-11-11-------------9----9---9-9-9-9-|
D|------------------------------------------------------------------------|
A|------------------------------------------------------------------------|
E|------------------------------------------------------------------------|

Greig:

e|----------------------------------------|
B|----------------------------------------|
G|-------------------7--7-7-7-7-7-7-7-7---|
D|---2-2-2---4-4-4---7--7-7-7-7-7-7-7-7---|
A|---2-2-2---4-4-4---5--5-5-5-5-5-5-5-5---|
E|---0-0-0---2-2-2------------------------|

Verse: x2

                     (Everything you never say)
e|--------------------4-4-4-4--5-5-5-5-5-5-5-5-5-5-5-5-5-5-5-5--|
B|--------------------------------------------------------------|
G|--------------------------------------------------------------|
D|---2----------------------------------------------------------|
A|---2(let ring)------------------------------------------------|
E|---0----------------------------------------------------------|

Pre-Chorus:

   (Senses overblowing...)
e|----------------------------------------------------------------------|
B|----------------------------------------------------------------------|
G|-------------------7--7-7-----------------------------7--7-7--7--7-7--|
D|---2--2-2---4-4----7--7-7--7--7-7-7---2--2-2---4-4----7--7-7--7--7-7--|
A|---2--2-2---4-4----5--5-5--7--7-7-7---2--2-2---4-4----5--5-5--5--5-5--|
E|---0--0-0---2-2------------5--5-5-5---0--0-0---2-2--------------------|

Continued

  (And it's driving me..)
e|--------------------|
B|--------------------|
G|--------------------|
D|---3-3-3-3-3-3-3-3--|
A|---3-3-3-3-3-3-3-3--|
E|---1-1-1-1-1-1-1-1--|

Chorus: x2

  (Craaazzzy, knowing what's good for you..)
e|------------------------------|
B|------------------------------|
G|------------------7-----------|
D|---2------4-------7x8---7-----|
A|---2x8----4x8-----5-----7x8---|
E|---0------2-------------5-----|

Verse
Pre-Chorus
Chorus

Refrain:

  (Cuz there's something about you...)
e|----------------------------------------------------------------------|
B|----------------------------------------------------------------------|
G|----------------------------------7-7-7-7-7-7-7-7---------------------|
D|---7-7--7-7-7---7-7-7-7-7-7-7-7---7-7-7-7-7-7-7-7---3-3-3-3-3-3-3-3---|
A|---7-7--7-7-7---7-7-7-7-7-7-7-7---5-5-5-5-5-5-5-5---3-3-3-3-3-3-3-3---|
E|---5-5--5-5-5---4-4-4-4-4-4-4-4---------------------1-1-1-1-1-1-1-1---|

Second Time:

   (Hard to forget you...)
e|----------------------------------------------------------------------|
B|----------------------------------------------------------------------|
G|----------------------------------4-4-4-4-4-4-4-4---7-7-7-7-7-7-7-7---|
D|---7-7--7-7-7---4-4-4-4-4-4-4-4---4-4-4-4-4-4-4-4---7-7-7-7-7-7-7-7---|
A|---7-7--7-7-7---4-4-4-4-4-4-4-4---2-2-2-2-2-2-2-2---5-5-5-5-5-5-5-5---|
E|---5-5--5-5-5---2-2-2-2-2-2-2-2---------------------------------------|

Bridge:

  (When you sat there laughing...)
e|---------------------------|
B|---------------------------|
G|---------7-----4-----7-----|
D|---4-----7x8---4x8---7x8---|
A|---4x8---5-----2-----5-----|
E|---2-----------------------|

Second Time:

e|------------------------------|
B|------------------------------|
G|---------7-----4--4--4--4-4---|
D|---4-----7x8---4--4--4--4-4---|
A|---4x8---5-----2--2--2--2-2---|
E|---2--------------------------|

Solo:

Bill:

e|-------------------------------------------------|
B|--------------------------------------2-2----2---|
G|---1h2p1---------------------1--2--4-------2-----|
D|----------4-2-0----------------------------------|
A|-----------------4--2-0---2----------------------|
E|-------------------------------------------------|

e|---4--5h4--5h4--7-7---9-9---7-5-4-4---7---------------------------------|
B|----------------------------------------10--9--7--------10-------10-----|
G|--------------------------------------------------9---------------------|
D|-----------------------------------------------------12----12--10---10--|
A|------------------------------------------------------------------------|
E|------------------------------------------------------------------------|

Greig:

e|----------------------------------------|
B|----------------------------------------|
G|-------------------7--7-7-7-7-7-7-7-7---|
D|---2-2-2---4-4-4---7--7-7-7-7-7-7-7-7---|
A|---2-2-2---4-4-4---5--5-5-5-5-5-5-5-5---|
E|---0-0-0---2-2-2------------------------|

Chorus
Refrain

Breakdown:

e|----------------------------------------------------------------------|
B|----------------------------------------------------------------------|
G|----------------------------------7-7-7-7-7-7-7-7---------------------|
D|---7-7--7-7-7---7-7-7-7-7-7-7-7---7-7-7-7-7-7-7-7---3-3-3-3-3-3-3-3---|
A|---7-7--7-7-7---7-7-7-7-7-7-7-7---5-5-5-5-5-5-5-5---3-3-3-3-3-3-3-3---|
E|---5-5--5-5-5---4-4-4-4-4-4-4-4---------------------1-1-1-1-1-1-1-1---|

Outro:

   (Enemy, you're my favorite enemy...)
e|----------------------------------------------------------------------|
B|----------------------------------------------------------------------|
G|----------------------------------7-7-7-7-7-7-7-7---------------------|
D|---7-7--7-7-7---7-7-7-7-7-7-7-7---7-7-7-7-7-7-7-7---3-3-3-3-3-3-3-3---|
A|---7-7--7-7-7---7-7-7-7-7-7-7-7---5-5-5-5-5-5-5-5---3-3-3-3-3-3-3-3---|
E|---5-5--5-5-5---4-4-4-4-4-4-4-4---------------------1-1-1-1-1-1-1-1---|

Ending Solo:

Bill:


e|-----12----------12--------------------------------------------|
B|-10------10---9------9------------10-12---13--12-10-12-10------|
G|-------------------------11--9h11-------------------------11-9-|
D|---------------------------------------------------------------|
A|---------------------------------------------------------------|
E|---------------------------------------------------------------|

Greig:

e|---------------------------|
B|---------------------------|
G|---------------7-----------|
D|---7-----7-----7x8---------|
A|---7x8---7x8---5-----3x8---|
E|---5-----4-----------1-----|
comments
We did not receive enough feedback on this tab! Please rate:
print report bad tab
1 2 3 4 5
I want to post or [tab]
guest
You may want to rate the tab now too:
select rating
Please do not post tabs as comments. Select "correction" instead!