Oops, an error
Loading. Please wait.

Ideal Waste Of Time bass

52 views 1 this week
no commentswrite comment
1 2 3 4 5
3 more votes to show rating
add to favorites
×
Save as Personal and add changes to this tab that will be seen only by you. Learn more ›
×
You can save this tab as Personal to edit and correct it or add notes. All changes will be seen only by you. Learn more »
launch autoscroll
font size
0
reset
guitar tuner
edit
Autoscroll
slow
fast
+/-
esc
set tempo
stop
Treble Charger --- Ideal Waste Of Time    (CANADIAN)
Album --- Detox

Standard Tuning (EADG)

I know that some parts sound weard, specially in the intro part 1, but this
is exactly what is played. 

Intro Part 1
G|----------------0000000000000-|
D|-----------3~-----------------|
A|-3~---1~----------------------|
E|------------------------------|

Intro Part 2 
G|---------------------------------|
D|---------------------------------|
A|-3-3-3-3---------1-1-1-1---------| x2
E|---------3-3-3-3---------11-0-11-|

Verse
G|----------------------------------------------------|
D|------00-0033-0033-03332-------00-0033-003-2-0--02--|
A|-33-33------------------1-33-33----------------3--3-|
E|----------------------------------------------------|

G|---------------------------------|
D|---------------------------------|
A|-3-3-3-3---------1-1-1-1---------| x2
E|---------3-3-3-3---------11-0-11-|

Chorus x2
G|-----------------------------------------|
D|-------------------------------/333-332--|
A|-3-33-3-33-----------1-11-1-11---------1-|
E|-----------3-33-3-33---------------------|

Intro Part 2
Verse
Chorus x2

Bridge
G|--------2-----------------2----------------------------------|
D|-0~---3--------3-2-0~---3--------3-2-00----------00----------|
A|----------1~----------------1~----------11-33-13----11-33-13-|
E|-------------------------------------------------------------|

G|---------------------------------------------------|
D|-0-0-0-0-3-3-2-2-0-0-0-0-3-3-2-2-00000000-11111111-|
A|---------------------------------------------------|
E|---------------------------------------------------|

Guitar Solo
G|---------------------------------|
D|---------------------------------|
A|-3-3-3-3---------1-1-1-1---------| x2
E|---------3-3-3-3---------11-0-11-|

Rest

Outro Chorus
G|-----------------------------------------|
D|-------------------------------/333-332--|
A|-3-33-3-33-----------1-11-1-11---------1-| x3
E|-----------3-33-3-33---------------------|

G|----------------------------------------------------------|
D|-------------------------------/333-333-333-333-----------|
A|-3-33-3-33-----------1-11-1-11-----------------1--3~---3x-|
E|-----------3-33-3-33--------------------------------------|

End
	
Suggest correction
Creating personal tab
Creating personal tab
You can edit any tab online and save it as your Personal.

You can edit, replace or remove any tab part or add personal notes – all changes will be seen only by you.

Personal tabs can be accessed anytime from any device, even offline.
Learn more »
Give kudos to tab author, rate the tab!
1 2 3 4 5
comments
print report bad tab
guest
Wanna post a correction for this tab? Suggest correction