Oops, an error
Loading. Please wait.

1 0 1 tab

by Tree63
289 views 1 this week
no commentswrite comment
1 2 3 4 5
3 more votes to show rating
add to favorites
×
Save as Personal and add changes to this tab that will be seen only by you. Learn more ›
×
You can save this tab as Personal to edit and correct it or add notes. All changes will be seen only by you. Learn more »
launch autoscroll
font size
0
reset
how to read this tab
guitar tuner
edit
Autoscroll
slow
fast
+/-
esc
set tempo
stop
Author
Difficulty
Song: 1*0*1
Album: Tree63
Artist: Tree63

intro:
----------2-4------9-p-7-h--9-p-7-h--9-p-7-h--9----|
---2-5---------------------------------------------|
---------------------------------------------------|
---------------------------------------------------|
---------------------------------------------------|
---------------------------------------------------|

------2-----------9-p-7-h--9-p-7-h--9-p-7-h--9-----|
--2-5----------------------------------------------|
--------4------------------------------------------|
---------------------------------------------------|
---------------------------------------------------|
---------------------------------------------------|


----------2-4---------2---------------2-4----------|
---2-5-----------2-5-------------2-5---------------|
------------------------4--------------------------|
---------------------------------------------------|
---------------------------------------------------|

------2-------------2-4---------2------------2-4---|
--2-5-----------2-5---------2-5----------2-5-------|
--------4-------------------------4----------------|
---------------------------------------------------|
---------------------------------------------------|
---------------------------------------------------|

------2---------------2-4-----------2-------|
--2-5-------------2-5-----------2-5---------|
--------4----------------------------4------|
--------------------------------------------|
--------------------------------------------|
--------------------------------------------|

-------2-4---------2--------------|
---2-5---------2-5----------------|
---------------------4------------|
----------------------------------|
----------------------------------|
----------------------------------|

verse 1
F#m

verse 2
----------2-4---------2---------------2-4----------|
---2-5-----------2-5-------------2-5---------------|
------------------------4--------------------------|
---------------------------------------------------|
---------------------------------------------------|
---------------------------------------------------|


------2-------------2-4---------2------------2-4---|
--2-5-----------2-5---------2-5----------2-5-------|
--------4-------------------------4----------------|
---------------------------------------------------|
---------------------------------------------------|
---------------------------------------------------|


------2-4--------2----------2-4--------2----------|
-2-5---------2-5-------2-5---------2-5------------|
----------------------------4------------4--------|
--------------------------------------------------|
--------------------------------------------------|
--------------------------------------------------|


pre-chorus
	      C#m          B     F#m

	      C#m                    B        F#m

	   C#m                B    F#m

              C#m     Em        F#m

chorus
                  G#                C#m

                  G#                C#m

                  G#                C#m

     G#               C#m

interlude 1
----------2-4------9-p-7-h--9-p-7-h--9-p-7-h--9-|
---2-5------------------------------------------|
------------------------------------------------|
------------------------------------------------|
------------------------------------------------|
------------------------------------------------|

---------2-----------9-p-7-h--9-p-7-h--9-p-7-h--9-|
------------2-5-----------------------------------|
--------------------------------------------------|
--------------------------------------------------|
--------------------------------------------------|
--------------------------------------------------|

verse 3
F#m
----------2-4------9-p-7-h--9-p-7-h--9-p-7-h--9-|
---2-5------------------------------------------|
------------------------------------------------|
------------------------------------------------|
------------------------------------------------|
------------------------------------------------|


---------2-----------9-p-7-h--9-p-7-h--9-p-7-h--9-|
------------2-5-----------------------------------|
--------------------------------------------------|
--------------------------------------------------|
--------------------------------------------------|
--------------------------------------------------|

---------2-----------9-p-7-h--9-p-7-h--9-p-7-h--9-|
------------2-5-----------------------------------|
--------------------------------------------------|
--------------------------------------------------|
--------------------------------------------------|
--------------------------------------------------|

---------2-----------9-p-7-h--9-p-7-h--9-p-7-h--9-|
------------2-5-----------------------------------|
--------------------------------------------------|
--------------------------------------------------|
--------------------------------------------------|
--------------------------------------------------|

pre-chorus 2
	  C#m             B       F#m

	   C#m         B         F#m

	          C#m      B            F#m

	        C#m   Em    F#m

chorus
                  G#                C#m

                  G#                C#m

                  G#                C#m

                  G#               C#m

interlude 2

----------4-6----------4------------4-6-|
---4-7-----------4-7-----------4-7------|
-------------------------6--------------|
----------------------------------------|
----------------------------------------|
----------------------------------------|

-------------4----------------4-6-------|
-------4-7------------4-7-----------4-7-|
---------------6------------------------|
----------------------------------------|
----------------------------------------|
----------------------------------------|

--4----------------4-6---------4-----------|
-----------4-7-----------4-7---------------|
---6--------------------------6------------|
-------------------------------------------|
-------------------------------------------|
-------------------------------------------|
N.C.

F#m

chorus
                  G#                C#m

                  G#                C#m

                  G#                C#m

     G#               C#m

           G#            C#m         G#        C#m
----------------4-6----------4-----------4-6---|
-----------4-7-----------4-7---------4-7-------|
-------------------------------6---------------|
-----------------------------------------------|
-----------------------------------------------|
-----------------------------------------------|

           G#            C#m         G#            C#m
----------------4-6----------4-----------4-6---|
-----------4-7-----------4-7---------4-7-------|
-------------------------------6---------------|
-----------------------------------------------|
-----------------------------------------------|
-----------------------------------------------|


outro
----------2-4---------2---------------2-4----------|
---2-5-----------2-5-------------2-5---------------|
------------------------4--------------------------|
---------------------------------------------------|
---------------------------------------------------|

------2-------------2-4---------2------------2-4---|
--2-5-----------2-5---------2-5----------2-5-------|
--------4-------------------------4----------------|
---------------------------------------------------|
---------------------------------------------------|
---------------------------------------------------|

------2---------------2-4-----------2-------|
--2-5-------------2-5-----------2-5---------|
--------4----------------------------4------|
--------------------------------------------|
--------------------------------------------|
--------------------------------------------|

-------2-4---------2--------------|
---2-5---------2-5----------------|
---------------------4------------|
----------------------------------|
----------------------------------|
----------------------------------|


----------14-16----------14------------14-16-|
--14-17----------14-17---------14-17---------|
----------------------------16---------------|
---------------------------------------------|
---------------------------------------------|
---------------------------------------------|

--------14-------------14-16---------14----|
-14-17---------14-17---------14-17---------|
-----------16---------------------------16-|
-------------------------------------------|
-------------------------------------------|
-------------------------------------------|

--------14-16---------14-------|
-14-17---------14-17-----------|
-------------------------16----|
-------------------------------|
-------------------------------|
-------------------------------|

----------14-16----------14------------14-16-|
--14-17----------14-17---------14-17---------|
----------------------------16---------------|
---------------------------------------------|
---------------------------------------------|
---------------------------------------------|

--------14-------------14-16---------14----|
-14-17---------14-17---------14-17---------|
-----------16---------------------------16-|
-------------------------------------------|
-------------------------------------------|
-------------------------------------------|


--------14-------------14-16---------------|
-14-17---------14-17-----------------------|
----------16-------------------------------|
-------------------------------------------|
-------------------------------------------|
-------------------------------------------|


----------14-16----------14-----------------|
--14-17----------14-17----------------------|
----------------------------16-----11---7---|
--------------------------------------------|
--------------------------------------------|
--------------------------------------------|
					let ring

						END
Suggest correction
Creating personal tab
Creating personal tab
You can edit any tab online and save it as your Personal.

You can edit, replace or remove any tab part or add personal notes – all changes will be seen only by you.

Personal tabs can be accessed anytime from any device, even offline.
Learn more »
Give kudos to tab author, rate the tab!
1 2 3 4 5
comments
print report bad tab
guest
You may want to rate the tab now too:
select rating
Wanna post a correction for this tab? Suggest correction