Oops, an error
Loading. Please wait.

Blessed Be Your Name Tab

version 1
version 1

Intro

Whole song

10,617 views 1 this week
1 commentread comment
1 2 3 4 5
2 more votes to show rating
add to favorites
launch autoscroll
font size
0
reset
how to read this tab
guitar tuner
×
Best way to learn
"Blessed Be Your Name"
Autoscroll
slow
fast
+/-
esc
set tempo
stop
Capo
2nd fret
Blessed Be Your Name
Words and Music by Matt and Beth Redman
Tabbed By Matt Wong
Key of B Major (Capo 2nd Fret)

Intro:
E|--9--|--7-------7--|--9---10-9------|-------------|--9--|--7------7--|--9---------|---|
B|-----|-----10------|------------10--|--7----------|-----|-----10-----|-----10-----|-7-|
G|-----|-------------|----------------|------9---7--|-----|------------|---------9--|---|
D|-----|-------------|----------------|-------------|-----|------------|------------|---|
A|-----|-------------|----------------|-------------|-----|------------|------------|---|
E|-----|-------------|----------------|-------------|-----|------------|------------|---|
Suggest correction
Give kudos to tab author, rate the tab!
1 2 3 4 5
comments
print report bad tab
1 comment total.
0 reply
musical prodigy 61 Oct 19, 2006 11:42 AM

It is too high. Sounds more like:

E----------------------------
B-7------------7-------------
G------9-7-9-----------7----- sounds better but not 100% correct
D-------------------9-----9--
A----------------------------
E----------------------------

guest
You may want to rate the tab now too:
select rating
Wanna post a correction for this tab? Suggest correction