Oops, an error
Loading. Please wait.

King Tab

version 2
version 2

Whole song

6,287 views 3 this week
1 commentread comment
1 2 3 4 5
excellent!
x 4
add to favorites
launch autoscroll
font size
0
reset
how to read this tab
guitar tuner
Tab Pro tools
  • play this tab
  • loop segment
  • change instrument
  • show fretboard
  • metronome
×
Best way to learn
"King"
Autoscroll
slow
fast
+/-
esc
set tempo
stop
Contributor
                             King - Tree 63
----------------------------------------------------------------------------
Hi all, this is my first tab. But I pit a lot of time on this. It sound really close to 
original song itself. If there is any problem or corrections, please feel free to email 
God Bless! :)(samuel199166@hotmail.com)

============================================================================
/= slide
P= hammer on/off
~= bend
x= mute
============================================================================
INTRO

Guitar
e||-------11------11------10------11------11--|
B||----11------11------11------11------11-----|
G||--8-------8-------8-------8-------8--------|
D||-------------------------------------------|
A||-------------------------------------------|
E||-------------------------------------------|

--------11-------11-------10-------11-------11--|
-----11-------11-------11-------11-------11-----|
------------------------------------------------|
--10-------10-------10-------10-------10--------|
------------------------------------------------|
------------------------------------------------|

-------11------11------10------11------11--|
----11------11------11------11------11-----|
-------------------------------------------|
--8-------8-------8-------8-------8--------|
-------------------------------------------|
-------------------------------------------|

--------11-------11-------10-------11-------11--|
-----11-------11-------11-------11-------11-----|
------------------------------------------------|
------------------------------------------------|
--11-------11-------11-------11-------11--------|
------------------------------------------------|

e|-------------------------------------------------------------|
B|-------------------------------------------------------------|
G|--13-13-13-13-12-12-12-12-10-10-10-10--8-8-8-8—(x3)----3>----|
D|---x--x--x--x--x--x--x--x--x--x--x--x--x-x-x-x-(x3)----x-----|
A|--11-11-11-11-10-10-10-10--8--8--8--8--6-6-6-6-(x3)----1>----|
E|-------------------------------------------------------------|


VERSE#1

Guitar 1
-------------------|------------------|
-------------------|------------------|
-------------------|------------------|
--6----------------|------------------|
--6----------------|------------------|
--4----------------|------------------|
  >We have heard...
------------------|-------------------|-------------------|
------------------|-------------------|-------------------|
------------------|-------------------|-------------------|
------------------|--8----------------|--6----------------|
------------------|--8----------------|--6----------------|
------------------|--6----------------|--4----------------|
                     >echoes of you...   >rumours of...
e|--------------------------------------------------|
B|--------------------------------------------------|
G|---12---13---10---12/3------12---13---15----------|
D|----X----X----X----X-X-------X----X----X----------|
A|---10---11----8---10/1------10---11---13----------|
E|--------------------------------------------------|
     > where one day...       > our altogether...

Chorus#1

Guitar
--------------------------------------------------|
--------------------------------------------------|
--------------------------------------------------|
--13-13-13-13-13-13-13-13-13-13-13-13-13-13-13-13-|
--13-13-13-13-13-13-13-13-13-13-13-13-13-13-13-13-|
--11-11-11-11-11-11-11-11-10-10-10-10-10-10-10-10-|
  >give you glory...
------------------------------------------|
------------------------------------------|
------------------------------------------|
--10-10-10-10-10-10-10-10-8-8-8-8-8-8-8-8-|
--10-10-10-10-10-10-10-10-8-8-8-8-8-8-8-8-|
--8--8--8--8--8--8--8--8--6-6-6-6-6-6-6-6-|
  >bring you honor...
----------------------------------|----------------------------------|
----------------------------------|----------------------------------|
----------------------------------|----------------------------------|
--6-6-6-6-6-6-6-6-5-5-5-5-5-5-5-5-|--3-3-3-3-3-3-3-3-6-6-6-6-6-6-6-6-|
--6-6-6-6-6-6-6-6-5-5-5-5-5-5-5-5-|--3-3-3-3-3-3-3-3-6-6-6-6-6-6-6-6-|
--4-4-4-4-4-4-4-4-3-3-3-3-3-3-3-3-|--1-1-1-1-1-1-1-1-4-4-4-4-4-4-4-4-|
  >King above all Kings              >you deserve our everything
--------------------------------------------------|
--------------------------------------------------|
--------------------------------------------------|
--13-13-13-13-13-13-13-13-13-13-13-13-13-13-13-13-|
--13-13-13-13-13-13-13-13-13-13-13-13-13-13-13-13-|
--11-11-11-11-11-11-11-11-10-10-10-10-10-10-10-10-|
  >We will lift our voices
------------------------------------------|
------------------------------------------|
------------------------------------------|
--10-10-10-10-10-10-10-10-8-8-8-8-8-8-8-8-|
--10-10-10-10-10-10-10-10-8-8-8-8-8-8-8-8-|
--8--8--8--8--8--8--8--8--6-6-6-6-6-6-6-6-|
  >with your praises
----------------------------------|
----------------------------------|
----------------------------------|
--6-6-6-6-6-6-6-6-8-8-8-8-8-8-8-8-|
--6-6-6-6-6-6-6-6-8-8-8-8-8-8-8-8-|
--4-4-4-4-4-4-4-4-6-6-6-6-6-6-6-6-|
  >Jesus you are our King

e|------------------------------------------------------------|
B|------------------------------------------------------------|
G|--13-13-13-13-12-12-12-12-10-10-10-10--8-8-8-8—(x3)----3>---|
D|---x--x--x--x--x--x--x--x--x--x--x--x--x-x-x-x-(x3)----x----|
A|--11-11-11-11-10-10-10-10--8--8--8--8--6-6-6-6-(x3)----1>---|
E|------------------------------------------------------------|

VERSE#2

GUITAR
-------------------|------------------|
-------------------|------------------|
-------------------|------------------|
--6----------------|------------------|
--6----------------|------------------|
--4----------------|------------------|

------------------|-------------------|-------------------|
------------------|-------------------|-------------------|
------------------|-------------------|-------------------|
------------------|--8----------------|--6----------------|
------------------|--8----------------|--6----------------|
------------------|--6----------------|--4----------------|

e|--------------------------------------------------|
B|--------------------------------------------------|
G|---12---13---10---12/3------12---13---15----------|
D|----X----X----X----X-X-------X----X----X----------|
A|---10---11----8---10/1------10---11---13----------|
E|--------------------------------------------------|

Chorus#2

Guitar
--------------------------------------------------|
--------------------------------------------------|
--------------------------------------------------|
--13-13-13-13-13-13-13-13-13-13-13-13-13-13-13-13-|
--13-13-13-13-13-13-13-13-13-13-13-13-13-13-13-13-|
--11-11-11-11-11-11-11-11-10-10-10-10-10-10-10-10-|
give you glory...
------------------------------------------|
------------------------------------------|
------------------------------------------|
--10-10-10-10-10-10-10-10-8-8-8-8-8-8-8-8-|
--10-10-10-10-10-10-10-10-8-8-8-8-8-8-8-8-|
--8--8--8--8--8--8--8--8--6-6-6-6-6-6-6-6-|

----------------------------------|----------------------------------|
----------------------------------|----------------------------------|
----------------------------------|----------------------------------|
--6-6-6-6-6-6-6-6-5-5-5-5-5-5-5-5-|--3-3-3-3-3-3-3-3-6-6-6-6-6-6-6-6-|
--6-6-6-6-6-6-6-6-5-5-5-5-5-5-5-5-|--3-3-3-3-3-3-3-3-6-6-6-6-6-6-6-6-|
--4-4-4-4-4-4-4-4-3-3-3-3-3-3-3-3-|--1-1-1-1-1-1-1-1-4-4-4-4-4-4-4-4-|

--------------------------------------------------|
--------------------------------------------------|
--------------------------------------------------|
--13-13-13-13-13-13-13-13-13-13-13-13-13-13-13-13-|
--13-13-13-13-13-13-13-13-13-13-13-13-13-13-13-13-|
--11-11-11-11-11-11-11-11-10-10-10-10-10-10-10-10-|

------------------------------------------|
------------------------------------------|
------------------------------------------|
--10-10-10-10-10-10-10-10-8-8-8-8-8-8-8-8-|
--10-10-10-10-10-10-10-10-8-8-8-8-8-8-8-8-|
--8--8--8--8--8--8--8--8--6-6-6-6-6-6-6-6-|

----------------------------------|
----------------------------------|
----------------------------------|
--6-6-6-6-6-6-6-6-8-8-8-8-8-8-8-8-|
--6-6-6-6-6-6-6-6-8-8-8-8-8-8-8-8-|
--4-4-4-4-4-4-4-4-6-6-6-6-6-6-6-6-|

SOLO
e|--------------------------------------------------|
B|--------16-------16-------15-------16-------16----|
G|--15-15-15-15-15-15-15-15-15-15-15-15-15-15-15/---|
D|--------------------- ----------------------------|
A|--------------------------------------------------|
E|--------------------------------------------------|

-----------------------------15~---------------------------------|
--16-------16----------16---------18p16p18p16/15-15-16-16--------|
--15-15-15-15-15-15-15-15-15---------------------15-15-15--------|
-----------------------------------------------------------------|
-----------------------------------------------------------------|
-----------------------------------------------------------------|

-----------------------------------------------------------------|
--15-16-15-16-16-16/13-13-13-------------------------------------|
--15-15-15-15-15-15/13-13-13-15~~17p15-17p15-17p15~~~------------|
-----------------------------------------------------------------|
-----------------------------------------------------------------|
-----------------------------------------------------------------|

Quite part:

Guitar(acoustic)
-------------------|------------------|
-------------------|------------------|
-------------------|------------------|
--6----------------|------------------|
--6----------------|------------------|
--4----------------|------------------|
  >we will give you glory...
------------------|-------------------|-------------------|
------------------|-------------------|-------------------|
------------------|-------------------|-------------------|
------------------|--8----------------|--6----------------|
------------------|--8----------------|--6----------------|
------------------|--6----------------|--4----------------|

--------------------|-------------------|----------------------|
--------------------|-------------------|----------------------|
--------------------|-------------------|----------------------|
--5--------6--------|--8----------------|--3--------5----------|
--5--------6--------|--8----------------|--3--------5----------|
--3--------4--------|--6----------------|--1--------3----------|
---------------------------------------------------------------|
---------------------------------------------------------------|
---------------------------------------------------------------|
--6------------------------------------------------------------|
--6------------------------------------------------------------|
--4------------------------------------------------------------|

Chorus#3

Guitar
--------------------------------------------------|
--------------------------------------------------|
--------------------------------------------------|
--13-13-13-13-13-13-13-13-13-13-13-13-13-13-13-13-|
--13-13-13-13-13-13-13-13-13-13-13-13-13-13-13-13-|
--11-11-11-11-11-11-11-11-10-10-10-10-10-10-10-10-|
give you glory...
------------------------------------------|
------------------------------------------|
------------------------------------------|
--10-10-10-10-10-10-10-10-8-8-8-8-8-8-8-8-|
--10-10-10-10-10-10-10-10-8-8-8-8-8-8-8-8-|
--8--8--8--8--8--8--8--8--6-6-6-6-6-6-6-6-|

----------------------------------|----------------------------------|
----------------------------------|----------------------------------|
----------------------------------|----------------------------------|
--6-6-6-6-6-6-6-6-5-5-5-5-5-5-5-5-|--3-3-3-3-3-3-3-3-6-6-6-6-6-6-6-6-|
--6-6-6-6-6-6-6-6-5-5-5-5-5-5-5-5-|--3-3-3-3-3-3-3-3-6-6-6-6-6-6-6-6-|
--4-4-4-4-4-4-4-4-3-3-3-3-3-3-3-3-|--1-1-1-1-1-1-1-1-4-4-4-4-4-4-4-4-|

--------------------------------------------------|
--------------------------------------------------|
--------------------------------------------------|
--13-13-13-13-13-13-13-13-13-13-13-13-13-13-13-13-|
--13-13-13-13-13-13-13-13-13-13-13-13-13-13-13-13-|
--11-11-11-11-11-11-11-11-10-10-10-10-10-10-10-10-|

------------------------------------------|
------------------------------------------|
------------------------------------------|
--10-10-10-10-10-10-10-10-8-8-8-8-8-8-8-8-|
--10-10-10-10-10-10-10-10-8-8-8-8-8-8-8-8-|
--8--8--8--8--8--8--8--8--6-6-6-6-6-6-6-6-|

----------------------------------|
----------------------------------|
----------------------------------|
--6-6-6-6-6-6-6-6-8-8-8-8-8-8-8-8-|    x3
--6-6-6-6-6-6-6-6-8-8-8-8-8-8-8-8-|
--4-4-4-4-4-4-4-4-6-6-6-6-6-6-6-6-|

OUTRO

Guitar
e|--------------------------------------------------|
B|--------------------------------------------------|
G|--------------------------------------------------|
D|--13-13-13-13-13-13-13-13-13-13-13-13-13-13-13-13-|
A|--13-13-13-13-13-13-13-13-13-13-13-13-13-13-13-13-|
E|--11-11-11-11-11-11-11-11-11-11-11-11-11-11-11-11-|

--------------------------------------------------|
--------------------------------------------------|
--------------------------------------------------|
--10-10-10-10-10-10-10-10-10-10-10-10-10-10-10-10-|
--10-10-10-10-10-10-10-10-10-10-10-10-10-10-10-10-|
--8--8--8--8--8--8--8--8--8--8--8--8--8--8--8--8--|

----------------------------------|
----------------------------------|
----------------------------------|
--8-8-8-8-8-8-8-8-8-8-8-8-8-8-8-8-|
--8-8-8-8-8-8-8-8-8-8-8-8-8-8-8-8-|
--6-6-6-6-6-6-6-6-6-6-6-6-6-6-6-6-|
END...
----------------------------------------------------------------------------

Lyrics:

Verse1
We have heard the thunder
We have seen the storm
echoes of your kingdom coming
rumours of our home
where one day we will stand before you Lord
our altogether beautiful reward

Chorus1
We will give you glory, bring you honour
King above all Kings, you deserve our everything
We will lift our voices with your praises
Jesus you are our King

Verse2
Though now we walk in darkness
Though now we see in part
Right now were warmed by the burning flames
of the fire in our harts
You've promised you will lead us to your throne
were we will worship you and you alone

Chorus2
We will give you glory, bring you honour
King above all Kings, you deserve our everything
We will lift our voices with your praises
Jesus you are our King

Solo
...none
Quite part
~O yea...
~We’ll give you glory lord…
~Jesus...

Chorus3
We will give you glory, bring you honour
King above all Kings, you deserve our everything
We will lift our voices with your praises
Jesus you are our King
comments
print report bad tab
1 comment total.
0 reply
okiedokie wrote on March 13 2009, 11:37 am

Nice tab.

I want to post or [tab]
guest
You may want to rate the tab now too:
select rating
Please do not post tabs as comments. Select "correction" instead!