Oops, an error
Loading. Please wait.

Treasure Tab

version 1
version 1

Whole song

2,312 views 3 this week
2 commentsread comments
1 2 3 4 5
please rate
add to favorites
launch autoscroll
font size
0
reset
how to read this tab
guitar tuner
Tab Pro tools
  • play this tab
  • loop segment
  • change instrument
  • show fretboard
  • metronome
Autoscroll
slow
fast
+/-
esc
set tempo
stop
Contributor
Difficulty
novice
Derek2493@yahoo.com Comments or questions

h - hammer

Intro x3
(Sounds great with a chorus pedal) with overdrive
e--------------------------------- ---------------------------------|
B--------------------------------- ---------------------------------|
G-7h9-11-11--7h9-11-11-11--12-11-x3-7h9-11-11--7h9-14-14-14--12-9---|
D-0----0--0--0----0--0--0------0-- -0----0--0--0----0--0--0-----0---|
A--------------------------------- ---------------------------------|
E--------------------------------- ---------------------------------|

Verse
Overdrive with palm mute (strum down,up,down)
e--10-10-10---8--8--8---7-7-7---3-3-3---|
B--10-10-10---8--8--8---7-7-7---3-3-3---|
G--11-11-11---9--9--9---7-7-7---4-4-4---|  x2
D--12-12-12--10-10-10---9-9-9---5-5-5---|
A--12-12-12--10-10-10---9-9-9---5-5-5---|
E--10-10-10---8--8--8---7-7-7---3-3-3---|
      D/       C/     Bm/     G/

(strum down only)
e--5-5-5---3-3-3---|
B--5-5-5---3-3-3---|
G--6-6-6---4-4-4---|  x2
D--7-7-7---5-5-5---|
A--7-7-7---5-5-5---|
E--5-5-5---3-3-3---|
    A/     G/

Chorus
Same as verse but no mutes (strum down only)
e--10-10-10---8--8--8---7-7-7---3-3-3---|
B--10-10-10---8--8--8---7-7-7---3-3-3---|
G--11-11-11---9--9--9---7-7-7---4-4-4---|  x2
D--12-12-12--10-10-10---9-9-9---5-5-5---|
A--12-12-12--10-10-10---9-9-9---5-5-5---|
E--10-10-10---8--8--8---7-7-7---3-3-3---|
      D/       C/     Bm/     G/

e--5-5-5---3-3-3---|
B--5-5-5---3-3-3---|
G--6-6-6---4-4-4---|  x2
D--7-7-7---5-5-5---|
A--7-7-7---5-5-5---|
E--5-5-5---3-3-3---|
    A/     G/

Bridge
e---------------------------------|
B---------------------------------|
G-7h9-11-11--7h9-11-11-11--12-11--|  x2
D-0----0--0--0----0--0--0------0--|
A---------------------------------|
E---------------------------------|

There's that funny little bit then this short solo

Solo
e------------------------------------------------|
B--------------------------13-12-13-12-----------|
G--11-12-14-7-5-7-11-12-14-------------12-14-12--|
D------------------------------------------------|
A------------------------------------------------|
E------------------------------------------------|

Outro x3
Same effects as intro
e--------------------------------- ---------------------------------|
B--------------------------------- ---------------------------------|
G-7h9-11-11--7h9-11-11-11--12-11-x3-7h9-11-11--7h9-14-14-14--12-9---|
D-0----0--0--0----0--0--0------0-- -0----0--0--0----0--0--0-----0---|
A--------------------------------- ---------------------------------|
E--------------------------------- ---------------------------------|

Song Structure:

Intro,
Verse,
Chorus,
Bridge,
Verse,
Chorus,
Solo,
Verse,
Chorus,
Outro,
Solo (played till it slowly fades away)
comments
We did not receive enough feedback on this tab! Please rate:
print report bad tab
1 2 3 4 5
2 comments total.
0 reply
sandeenh wrote on October 17 2013, 06:03 am

The whole song is half a step down from standard tuning. So move everything a half step down.OR switch tuning to D# G# E F# A# D# and follow the tab.

0 reply
sandeenh wrote on October 17 2013, 06:12 am

Sorry I meant the Tuning is D# G# C# F# A# D#

I want to post or [tab]
guest
You may want to rate the tab now too:
select rating
Please do not post tabs as comments. Select "correction" instead!