Oops, an error
Loading. Please wait.

Treasure Tab

version 2
version 2

Whole song

1,731 views 6 this week
no commentswrite comment
1 2 3 4 5
please rate
add to favorites
launch autoscroll
font size
0
reset
how to read this tab
guitar tuner
Tab Pro tools
  • play this tab
  • loop segment
  • change instrument
  • show fretboard
  • metronome
×
Best way to learn
"Treasure"
Autoscroll
slow
fast
+/-
esc
set tempo
stop
Contributor
Difficulty
intermediate
------------------------------------------------------------------------------
                             Treasure - Tree 63
-------------------------------------------------------------------------------
Tabbed by: Lucas van Niekerk
Email: master_powlith@yahoo.com

I'm a big fan of these guys from South Africa.

Tuning: Standard
Intro:
e|---------------------------------------------------------------------------|
B|---------------------------------------------------------------------------|
G|-7h9/11-11-7h9/11-11-11h12-9-(x4)------------------------------------------|
D|---------------------------------------------------------------------------|
A|---------------------------------------------------------------------------|
E|---------------------------------------------------------------------------|

(This whole bar is played twice)
e|---------------------------------------------------------------------------|
B|---------------------------------------------------------------------------|
G|-7h9/11-11-7h9/11-11-11h12-9-(x3)--7h9/11-11-7h9/12-12-11-9-(x1)-----------|
D|---------------------------------------------------------------------------|
A|---------------------------------------------------------------------------|
E|---------------------------------------------------------------------------|

Verse:
(Each chord is played, and then played muted a few times with the left hand)
e|-9---x---7---x---6---x---2---x---------------------------------------------|
B|-9---x---7---x---6---x---2---x---------------------------------------------|
G|-10--x---8---x---7---x---3---x---(x2)--------------------------------------|
D|-11--x---9---x---8---x---4---x---------------------------------------------|
A|-11--x---9---x---8---x---4---x---------------------------------------------|
E|-9---x---7---x---6---x---2---x---------------------------------------------|
(The muting and strumming is pretty diferent for each verse so you can play pretty much 
that sounds good)

(Strum down only)
e|---------------------------------------------------------------------------|
B|---------------------------------------------------------------------------|
G|---------------------------------------------(X2)--------------------------|
D|-11-11-11-11-11-11-11-11--9-9-9-9-9-9-9-9----------------------------------|
A|-11-11-11-11-11-11-11-11--9-9-9-9-9-9-9-9----------------------------------|
E|-9--9--9--9--9--9--9--9---7-7-7-7-7-7-7-7----------------------------------|

Chorus:
(The chords are then played 8 times each, full blast, with no muting, accentuatung the 
notes)
e|-9----7---6---2------------------------------------------------------------|
B|-9----7---6---2------------------------------------------------------------|
G|-10---8---7---3-----(X2)---------------------------------------------------|
D|-11---9---8---4------------------------------------------------------------|
A|-11---9---8---4------------------------------------------------------------|
E|-9----7---6---2------------------------------------------------------------|
(Again you can do any strumming but, down strumming sounds best)

Intro:
e|---------------------------------------------------------------------------|
B|---------------------------------------------------------------------------|
G|-7h9/11-11-7h9/11-11-11h12-9-(x1)------------------------------------------|
D|---------------------------------------------------------------------------|
A|---------------------------------------------------------------------------|
E|---------------------------------------------------------------------------|

Verse:
e|-9---x---7---x---6---x---2---x---------------------------------------------|
B|-9---x---7---x---6---x---2---x---------------------------------------------|
G|-10--x---8---x---7---x---3---x--(x2)---------------------------------------|
D|-11--x---9---x---8---x---4---x---------------------------------------------|
A|-11--x---9---x---8---x---4---x---------------------------------------------|
E|-9---x---7---x---6---x---2---x---------------------------------------------|

(Down Strumming)
e|---------------------------------------------------------------------------|
B|---------------------------------------------------------------------------|
G|-------------------------------------------(X2)----------------------------|
D|-11-11-11-11-11-11-11-11--9-9-9-9-9-9-9-9----------------------------------|
A|-11-11-11-11-11-11-11-11--9-9-9-9-9-9-9-9----------------------------------|
E|-9--9--9--9--9--9--9--9---7-7-7-7-7-7-7-7----------------------------------|

Chorus:
(8 times each, down strumming)
e|-9----7---6---2------------------------------------------------------------|
B|-9----7---6---2------------------------------------------------------------|
G|-10---8---7---3--(X2)------------------------------------------------------|
D|-11---9---8---4------------------------------------------------------------|
A|-11---9---8---4------------------------------------------------------------|
E|-9----7---6---2------------------------------------------------------------|

Solo:                                                                (half bend up and back)
e|-13------------------------------------------13-14-16----------------------|
B|----14-(let ring)--10-11-13---------------------------14----12-14-7-9b10b9-|
G|----------------------------11----9-11-9-11--------------------------------|
D|---------------------------------------------------------------------------|
A|---------------------------------------------------------------------------|
E|---------------------------------------------------------------------------|

Fill:
(8 times each, down strumming)
e|---------------------------------------------------------------------------|
B|---------------------------------------------------------------------------|
G|-----------------(X2)------------------------------------------------------|
D|-11--9---8---4---------11-(let ring)---------------------------------------|
A|-x---x---x---x---------11--------------------------------------------------|
E|-9---7---6---2---------9---------------------------------------------------|

Chorus:
(8 times each, down strumming)
e|-9----7---6---2------------------------------------------------------------|
B|-9----7---6---2------------------------------------------------------------|
G|-10---8---7---3-----(X2)---------------------------------------------------|
D|-11---9---8---4------------------------------------------------------------|
A|-11---9---8---4------------------------------------------------------------|
E|-9----7---6---2------------------------------------------------------------|

Outro:
(This whole bar is played twice)
e|---------------------------------------------------------------------------|
B|---------------------------------------------------------------------------|
G|-7h9/11-11-7h9/11-11-11h12-9-(x3)--7h9/11-11-7h9/12-12-11-9-(x1)-----------|
D|---------------------------------------------------------------------------|
A|---------------------------------------------------------------------------|
E|---------------------------------------------------------------------------|

And then end on:
e|---------------------------------------------------------------------------|
B|---------------------------------------------------------------------------|
G|-7h9/11-11-7h9/11-11-11h12-9-(pause)--7h9/11-11-7h9/11-11-11h12-9----------|
D|---------------------------------------------------------------------------|
A|---------------------------------------------------------------------------|
E|---------------------------------------------------------------------------|

Enjoy!

| /  slide up
| \  slide down
| h  hammer-on
| p  pull-off
| b  bend
| ~  vibrato
| +  harmonic
| x  Mute note
===============================================================================
comments
We did not receive enough feedback on this tab! Please rate:
print report bad tab
1 2 3 4 5
I want to post or [tab]
guest
You may want to rate the tab now too:
select rating
Please do not post tabs as comments. Select "correction" instead!