Oops, an error
Loading. Please wait.

You Only Tab

790 views 1 this week
no commentswrite comment
1 2 3 4 5
please rate
add to favorites
launch autoscroll
font size
0
reset
how to read this tab
guitar tuner
Tab Pro tools
  • play this tab
  • loop segment
  • change instrument
  • show fretboard
  • metronome
×
Best way to learn
"You Only"
Autoscroll
slow
fast
+/-
esc
set tempo
stop
Contributor
Title:	You Only
Artist:	Tree63
Album:	The Answer to the Question
Tabbed by:  derek2493@yahoo.com

Any questions or comments, feel free to e-mail me at derek2493@yahoo.com

Tuning: Standard (EADGBE)


Intro/Riff: (0:00)

	e|-----12~~11------12~~11------12~~11------12~~12b14b12---| 
	B|-----------12----------12----------12-------------------|
	G|---9-----------9-----------9-----------9----------------|
	D|--------------------------------------------------------|
	A|--------------------------------------------------------|
	E|--------------------------------------------------------|

Play 2 Times

Riff Background: (0:03)

	e|-----------------------------------------------------|
	B|-----------------------------------------------------|
	G|-------------------------------------------9-9-9-9---|
	D|---2-2-2-2-4-4-7-7-2-2-2-2-4-4-6-6-7-7-7-7-9-9-9-9---|
	A|---2-2-2-2-4-4-7-7-2-2-2-2-4-4-6-6-7-7-7-7-7-7-7-7---|
	E|---0-0-0-0-2-2-5-5-0-0-0-0-2-2-4-4-5-5-5-5-----------|

Verse 1: (0:15)

	e|-------------------------------------|
	B|-------------------------------------|
	G|-------------------------------------|  Play
	D|---9-9-9-9-7-7-7-7-9-9-9-9-6-6-7-7---|  2 Times
	A|---9-9-9-9-7-7-7-7-9-9-9-9-6-6-7-7---|
	E|---7-7-7-7-5-5-5-5-7-7-7-7-4-4-5-5---|
Plam Mute:................................

Verse (Guitar 2 in the middle of the verse): (0:22)

	e|---------------------------|
	B|---------------------------|
	G|---11-11--9-9--11-11-9-9---|
	D|---11-11--9-9--11-11-9-9---|
	A|---9--9---7-7--9--9--7-7---|
	E|---------------------------|

Chorus: (0:30)

	e|-------------------------------------|
	B|-------------------------------------|
	G|-------------------------------------|
	D|---2-2-2-2-4-4-6-6-7-7-7-7-4-4-7-7---|
	A|---2-2-2-2-4-4-6-6-7-7-7-7-4-4-7-7---|
	E|---0-0-0-0-2-2-4-4-5-5-5-5-2-2-5-5---|

	e|-------------------------------------|
	B|-------------------------------------|
	G|---------------------------9-9-9-9---|
	D|---2-2-2-2-4-4-6-6-7-7-7-7-9-9-9-9---|
	A|---2-2-2-2-4-4-6-6-7-7-7-7-7-7-7-7---|
	E|---0-0-0-0-2-2-4-4-5-5-5-5-----------|

Riff: (0:45)

	e|-----12~~11------12~~11------12~~11------12~~12b14b12---|
	B|-----------12----------12----------12-------------------|
	G|---9-----------9-----------9-----------9----------------|
	D|--------------------------------------------------------|
	A|--------------------------------------------------------|
	E|--------------------------------------------------------|

Riff Background: (0:45)

	e|-------------------------------------|
	B|-------------------------------------|
	G|-------------------------------------|
	D|---2-2-2-2-4-4-6-6-7-7-7-7-4-4-7-7---|
	A|---2-2-2-2-4-4-6-6-7-7-7-7-4-4-7-7---|
	E|---0-0-0-0-2-2-4-4-5-5-5-5-2-2-5-5---|

Verse 2: (0:53)

	e|-----------------------------------------|
	B|-----------------------------------------|
	G|---11-11-X-X-9-9-X-X-11-11-X-X-8-8-9-9---|  Play
	D|---11-11-X-X-9-9-X-X-11-11-X-X-8-8-9-9---|  2 Times
	A|---9--9--X-X-7-7-X-X-9--9--X-X-6-6-7-7---|
	E|-----------------------------------------|

Verse (Guitar 2): (1:01)

	e|-------------------------------------|
	B|-------------------------------------|
	G|-------------------------------------|
  	D|---9-9-9-9-7-7-7-7-9-9-9-9-6-6-7-7---|
	A|---9-9-9-9-7-7-7-7-9-9-9-9-6-6-7-7---|
	E|---7-7-7-7-5-5-5-5-7-7-7-7-4-4-5-5---|
Plam Mute:................................

Chorus: (1:08)

	e|-------------------------------------|
	B|-------------------------------------|
	G|-------------------------------------|
	D|---2-2-2-2-4-4-6-6-7-7-7-7-4-4-7-7---|
	A|---2-2-2-2-4-4-6-6-7-7-7-7-4-4-7-7---|
	E|---0-0-0-0-2-2-4-4-5-5-5-5-2-2-5-5---|

	e|-------------------------------------|
	B|-------------------------------------|
	G|---------------------------9-9-9-9---|
	D|---2-2-2-2-4-4-6-6-7-7-7-7-9-9-9-9---|
	A|---2-2-2-2-4-4-6-6-7-7-7-7-7-7-7-7---|
	E|---0-0-0-0-2-2-4-4-5-5-5-5-----------|

Riff: (1:23)

	e|-----12~~11------12~~11------12~~11------12~~12b14b12---|
	B|-----------12----------12----------12-------------------|
	G|---9-----------9-----------9-----------9----------------|
	D|--------------------------------------------------------|
	A|--------------------------------------------------------|
	E|--------------------------------------------------------|

Play 2 Times

Riff Background: (1:23)

	e|-------------------------------------|
	B|-------------------------------------|
	G|-------------------------------------|
	D|---2-2-2-2-4-4-6-6-7-7-7-7-4-4-7-7---|
	A|---2-2-2-2-4-4-6-6-7-7-7-7-4-4-7-7---|
	E|---0-0-0-0-2-2-4-4-5-5-5-5-2-2-5-5---|

	e|-------------------------------------|
	B|-------------------------------------|
	G|---------------------------9-9-9-9---|
	D|---2-2-2-2-4-4-6-6-7-7-7-7-9-9-9-9---|
	A|---2-2-2-2-4-4-6-6-7-7-7-7-7-7-7-7---|
	E|---0-0-0-0-2-2-4-4-5-5-5-5-----------|

Verse 3: (1:39)			(1:46)			(1:52)

	e|-----------|		|----------|		|---------|
	B|-----------|		|----------|		|---------|
	G|-----------|		|----------|		|---9~~---|
	D|---9~~~~---|		|----------|		|---9~~---|
	A|---9~~~~---|		|----7~~---|		|---7~~---|
	E|---7~~~~---|		|---9~~----|		|---------|

Chorus: (1:54)

	e|-------------------------------------|
	B|-------------------------------------|
	G|-------------------------------------|
	D|---2-2-2-2-4-4-6-6-7-7-7-7-4-4-7-7---|
	A|---2-2-2-2-4-4-6-6-7-7-7-7-4-4-7-7---|
	E|---0-0-0-0-2-2-4-4-5-5-5-5-2-2-5-5---|
Plum Mute:................	

	e|-------------------------------------|
	B|-------------------------------------|
	G|---------------------------9-9-9-9---|
	D|---2-2-2-2-4-4-6-6-7-7-7-7-9-9-9-9---|
	A|---2-2-2-2-4-4-6-6-7-7-7-7-7-7-7-7---|
	E|---0-0-0-0-2-2-4-4-5-5-5-5-----------|

Riff: (2:09)

	e|-----12~~11------12~~11------12~~11------12~~12b14b12---|
	B|-----------12----------12----------12-------------------|
	G|---9-----------9-----------9-----------9----------------|
	D|--------------------------------------------------------|
	A|--------------------------------------------------------|
	E|--------------------------------------------------------|

Play 2 Times

Riff Background: (1:23)

	e|-------------------------------------|
	B|-------------------------------------|
	G|-------------------------------------|
	D|---2-2-2-2-4-4-6-6-7-7-7-7-4-4-7-7---|
	A|---2-2-2-2-4-4-6-6-7-7-7-7-4-4-7-7---|
	E|---0-0-0-0-2-2-4-4-5-5-5-5-2-2-5-5---|

	e|-------------------------------------|
	B|-------------------------------------|
	G|---------------------------9-9-9-9---|
	D|---2-2-2-2-4-4-6-6-7-7-7-7-9-9-9-9---|
	A|---2-2-2-2-4-4-6-6-7-7-7-7-7-7-7-7---|
	E|---0-0-0-0-2-2-4-4-5-5-5-5-----------|

End: (2:24)

	e|-----------|
	B|-----------|
	G|-----------|
	D|---2~~~~---|
	A|---2~~~~---|
	E|---0~~~~---|

comments
We did not receive enough feedback on this tab! Please rate:
print report bad tab
1 2 3 4 5
I want to post or [tab]
guest
You may want to rate the tab now too:
select rating
Please do not post tabs as comments. Select "correction" instead!