Oops, an error
Loading. Please wait.

El Payaso Tab

by Tremolo
192 views 1 this week
no commentswrite comment
1 2 3 4 5
3 more votes to show rating
add to favorites
×
Save as Personal and add changes to this tab that will be seen only by you. Learn more ›
×
You can save this tab as Personal to edit and correct it or add notes. All changes will be seen only by you. Learn more »
save as personal
new!
launch autoscroll
font size
0
reset
how to read this tab
guitar tuner
Autoscroll
slow
fast
+/-
esc
set tempo
stop
para el grupo mas chvr SmAsHiNg de abcaun q esta incompleto pero q
chu la wada es q es un grupo

Intro X2
|-1--3-3--1--3-3--1--3------------------1--3-3--1--3-3--3-1---|
|-3--5-5--3--5-5--3--5--------------5-3-3--5-5--3--5-5--5-3---|
|-3--5-5--3--5-5--3--5--5/6-5-3-5-3-----3--5-5--3--5-5--5-3---|
|-2--3-3--2--3-3--2--3------------------2--3-3--2--3-3--3-2---|
|-1--3-3--1--3-3--1--1------------------1--3-3--1--3-3--3-1---|
|-1--3-3--1--3-3--1--1------------------1--3-3--1--3-3--3-1---|

Gm
Soy el que viene desde lejos sin un sol,motivado por el viento y mi pasión
Gm                                  D#      A#              F
vengo a tu plaza a traerte diversión,vengo a llevarte con migo a otro mundo
Gm
ya son las 7 y ya empieza la función,la risa de un niño a sido mi pasión
                                     D#      A#             F
robo aplausos por todo mi alrededor,paso el sombrero sin ninguna obligación


D#      A#                    F
solo tu risa puede pagarle a mi alma.
D#      A#              F#       Gm
Y se me alegra el alma lejos de llorar
D#      A#              F#o(Gm)      D
y sin que se den cuenta me voy ha marchaaaaarrr.


Intro X2
|-1--3-3--1--3-3--1--3------------------1--3-3--1--3-3--3-1---|
|-3--5-5--3--5-5--3--5--------------5-3-3--5-5--3--5-5--5-3---|
|-3--5-5--3--5-5--3--5--5/6-5-3-5-3-----3--5-5--3--5-5--5-3---|
|-2--3-3--2--3-3--2--3------------------2--3-3--2--3-3--3-2---|
|-1--3-3--1--3-3--1--1------------------1--3-3--1--3-3--3-1---|
|-1--3-3--1--3-3--1--1------------------1--3-3--1--3-3--3-1---|

Gm
Lavo mi cara y la sonrisa no se va, y dejo el pueblo en total oscuridad
Gm                                  D#      A#           F
En mi carreta me comienzo ha alejar, y un nuevo día pronto amanecerá
D#        A#               F
Y el otro pueblo la función va ha comenzar
D#      A#              F#       Gm
Y se me alegra el alma lejos de llorar
D#      A#              F#o(Gm)      D
y sin que se den cuenta me voy ha marchaaaaarrr.
CORO:
Gm             D#           A#             F
Toda mi vida, toda mi vida la he dedicado a sonreír
Gm             D#           A#             F
Toda mi vida, toda mi vida la he construido para tiiii!!
Gm             D#           A#             F
Toda mi vida, toda mi vida la he dedicado a sonreír
Gm             D#           A#             F
Toda mi vida, toda mi vida la he construido para tiiiiiiiiiiiii!!!!!!!
El solo
 (Gm D# A# F  Gm D# A# F  D# A# F Gm  D# A# F D  Gm D# A# F  Gm D# A# F)
Y se me alegra el alma lejos de llorar
y sin que se den cuenta me voy ha marchaaaaarrr.

Repetir CORO


esto esta dedikdo la niña mas linda q esta en mi vida
f...... te moa xomu
jiji y para mi mancha SmAsHiNg MG corazon
Suggest correction
Give kudos to tab author, rate the tab!
1 2 3 4 5
comments
print report bad tab
guest
Wanna post a correction for this tab? Suggest correction