Oops, an error
Loading. Please wait.

El Zorro Y La Llama Bass Tab

85 views 1 this week
no commentswrite comment
1 2 3 4 5
3 more votes to show rating
add to favorites
launch autoscroll
font size
0
reset
guitar tuner
×
Best way to learn
"El Zorro Y La Llama"
Autoscroll
slow
fast
+/-
esc
set tempo
stop
oaaaaaaaaaaaaaaaaaaa amios q les gusta tremolo px a ca les dejo el bajo
de unas d sus canciones mas chvrs jejeje
INTRO:
ES IGUAL Q LA GUITARRA JE:p

G-----------------------------------------------------
D-----4----5-----4-----2----------4----5----4---------
A-222---22----22---222---4-0--222---22---22---2-------
E------------------------------------------------2525-X4PARTE (1)

MAR....

G----------------------------
D----------------------------
A--22222---------------------
E--------33333--55555--22222-X4 PARTE(2)

REPITE LA PARTE (1).......


G-----------------------------------------------------
D-----4----5-----4-----2----------4----5----4---------
A-222---22----22---222---4-0--222---22---22---2-------
E------------------------------------------------2525-X4PARTE (1)


LLEGO....
G----------------------------
D----------------------------
A--22222---------------------
E--------33333--55555--22222-X4

AQUI PX ANTES DE PACHAMADAMADA JIJI CREO Q ES HACI JIJI
G--------------------------------------------------------------------------
D--------------------------------------------------------------------------
A--22222--------------------------2--5555------2222-----5555------2222-----
E--------33333--55555--2222-2-2-5---------5555------232------5555------232-

LUEGOP PX EL PUNTEO
 ES IGUAL Q LAS ESTROFAS..........

CADE NA.....

G----------------------------
D----------------------------
A--22222---------------------
E--------33333--55555--22222-X4

OTRAVEZ PX PA EL FINAL
JEJEJ....PACHAMADA JEJE
G--------------------------------------------------------------------------
D--------------------------------------------------------------------------
A--22222--------------------------2--5555------2222-----5555------2222-----
E--------33333--55555--2222-2-2-5---------5555------232------5555------232-


Y TERMINA COMO COMIENZA JEJE.....

G--------------------------------------------------------
D-----4----5-----4-----2----------4----5----4------------
A-222---22----22---222---4-0--222---22---22---2-------2--
E------------------------------------------------2525----X4PARTE (1)

SALUDOS PA MI MI BBITA BRIGITTE JEJE KE LA KELO MUXO Y A MIS
AMIX D CHICLAYO VICKY Y JEANNY...
Suggest correction
Give kudos to tab author, rate the tab!
1 2 3 4 5
comments
print report bad tab
guest
You may want to rate the tab now too:
select rating
Wanna post a correction for this tab? Suggest correction